» » »

Pink Floyd, Have A Cigar Tabs (ver.3)

Artists:  A B C D E F G H I J K L M N O P Q R S T U V W X Y Z # 

Have A Cigar Tabs (ver.3)

Pink Floyd Tabs
 Rating:
4/5 (4 votes)
Have A Cigar lessons Tabs too difficult? Try these video lessons and learn fast
                (Solo)


  Okay.This is my first tab, so give me a break. I don't like tabing out songs
that much but, I have never found a good tab for the guitar solo on "Have A Cigar"...
Personaly one of my favorite Pink Floyd Songs...Well...I'm gonna stop yappin and
tab this sucker out!

\=slide
B=bend
R=Release
H=hammer
P=Pull Off
~=Vibroto
x=Muffle


Standered "E" tuning    (EADGBE)


|------------------------------------------12H15P12--15~~~----17B-17-17R---15B--15-14-14------|
|15B--15B--15~~~--12------------------15B------------------------------------------------15~~~|
|---------------------14B-----12B-------------------------------------------------------------|
|---------------------------------------------------------------------------------------------|
|---------------------------------------------------------------------------------------------|
|---------------------------------------------------------------------------------------------|

|---------------------------------------------------------------------------------------------|
|15~~~-x-15~~--15B--------------------------------14-14-14-14-14------12B---------------------|
|--------------------14B---14--12B---------12-----14-14-14-14-14--14--12B---------------------|
|------------------------------------14~-----------------------------------x-14~~~------------|
|--------------------------------------------------------------------------x-------14P12P10-12|
|---------------------------------------------------------------------------------------------|

|------------------------------------------15B-12------12-----12---------12------12--15--15---|
|-------------------------------0-----12-------12--15B----15B-----15P12------15B------------12|
|-------12-12-12-12-----12---------14---------------------------------------------------------|
|-------12----12----12--12H14-----------------------------------------------------------------|
|12H14----------------------------------------------------------------------------------------|
|---------------------------------------------------------------------------------------------|

|15B-15-14---14----------------19B--19-18---17-16----------------------------12--12-----------|
|----------------15---15~~~----19B----------------17-17-17~~~---17B------------------15-------|
|-----------------------------------------------------------------------14B--------------14B--|
|---------------------------------------------------------------------------------------------|
|---------------------------------------------------------------------------------------------|
|---------------------------------------------------------------------------------------------|

|---------------------------------------------------------------------------------------------|
|------------------------------------------------x---12------12-----x-12-x-x-12-x-x-12-x-x-12-|
|12--14--12B-------------------------------------x---12-12---12-----x-12-x-x-12-x-x-12-x-x-12-|
|--------------x-14~~~------------------------------------------------------------------------|
|-----------------------14P12P10---12H14~~~---------------------------------------------------|
|---------------------------------------------------------------------------------------------|

|-------------------------------------------------------------------------------12-12---------|
|X-X-12-X-X---12---12-X-X-12----X-12-X-X-12/14------14\12--12-----12---X---12-X-12-12--x------|
|X-X-12-X-X---12---12-X-X-12----X-12-X-X-12/14------14\12--12-12--12---X---12-X-12-12--x------|
|----------------------------------------12/14------14\12--12-12------------------------------|
|---------------------------------------------------------------------------------------------|
|---------------------------------------------------------------------------------------------|

|--------12---------------------------------------------------------------------------12------|
|-----12-----15-----------------------------------15B~~~-------------------15B----------------|
|14B---------------14B---14--12B---------12---------------------------------------------------|
|----------------------------------14~~~------------------------------------------------------|
|---------------------------------------------------------------------------------------------|
|---------------------------------------------------------------------------------------------|

|15P14H15~~~---14---14B~~~--------12----------------------------------------------------------|
|-------------------------------------15------15B---15----------------------------------------|
|-------------------------------------------------------14B-----14---12~~~---12~~~---12~~~----|
|---------------------------------------------------------------------------------------------|
|---------------------------------------------------------------------------------------------|
|---------------------------------------------------------------------------------------------|

|---------------------------------------------------------------------------------------------|
|---------------------------------------------------------------------------------------------|
|14B--14B--14B--14B---12---------14P12------------------12---12--x------12------x----12-----14|
|-----------------------------------------14~~~~~~~~~---12---12--x------12------x----12-----14|
|---------------------------------------------------------------------------------------------|
|---------------------------------------------------------------------------------------------|

|-----------------------------12--------------------------------------------------------------|
|---------------------------------15----------------------------------------------------------|
|12---12B---------------14B-----------14B----14---14-----12B-----------------12B---------14B--|
|12---12B---------------------------------------------------------14~~~-----------------------|
|---------------------------------------------------------------------------------------------|
|---------------------------------------------------------------------------------------------|

|----12--------------------17B--17B--17B-----17B---15--0--------------------------------------|
|12----------15B~~~---15-------------------------------17-----17~~~---17B-------17B-----17B---|
|---------------------------------------------------------------------------------------------|
|---------------------------------------------------------------------------------------------|
|---------------------------------------------------------------------------------------------|
|---------------------------------------------------------------------------------------------|

|---------------------------------------------------------------------------------------------|
|17B-17-R17~~~~---------17B-------17B-17-17-17-R17---15H17~~~~~~~-----------------------------|
|---------------------------------------------------------------------14P12---14B------14-----|
|---------------------------------------------------------------------------------------------|
|---------------------------------------------------------------------------------------------|
|---------------------------------------------------------------------------------------------|

|------12-----------------------------------------12------------------12----------------------|
|--x------x---x--12---x--x---12---x--x---12----x------x---x--12----x------x-------------------|
|--x------x---x--12---x--x---12---x--x---12----x------x---x--12----x------x---12/14---14\12---|
|-----------------------------------------------------------------------------12/14---14\12---|
|---------------------------------------------------------------------------------------------|
|---------------------------------------------------------------------------------------------|

|----------------------------------------------------12---------------------------------------|
|----------12----x--12--x--x--12-----------------12-------15P12-------------------------------|
|12--12----12----x--12--x--x--12------12----14B--------------------14B---14----12B---12~~~~~~-|
|12--12----12---------------------------------------------------------------------------------|
|---------------------------------------------------------------------------------------------|
|---------------------------------------------------------------------------------------------|

                       Sudden drop in the volume.

|---------------------------------------------------------------------------------------------|
|---------------------------------------------------------------------------------------------|
|-11-----------------------------11-------11B-------------------------------------------------|
|----12---12~~~~~~~---------10--------------------10~~~~~~~------10H12~~~~~~---------x--------|
|---------------------------------------------------------------------------------------------|
|---------------------------------------------------------------------------------------------|

|--------------------------------------------------------------------------------15P12-15-15B-|
|15B~~~-----------------------------------------------------------------15B~~~----------------|
|---------14B---14-R14\12---------14B----14B-12-----------------------------------------------|
|------------------------------------------------14~~~~~~~~~----------------------------------|
|---------------------------------------------------------------------------------------------|
|---------------------------------------------------------------------------------------------|

|-14---------------------------------------------15-15-15-15---15B---15-----------------------|
|---------------------------------------------------------------------------------------------|
|---------------------------------------------------------------------------------------------|
|---------------------------------------------------------------------------------------------|
|---------------------------------------------------------------------------------------------|
|---------------------------------------------------------------------------------------------|





  Well...Thats about it!  It's kinda hard to learn because most of the stuff is just repeated 
and over again.  Just work at it some and I'm sure that you will get it pretty fast.
Good luck and have fun!



  If you want to e-mail me any corrections or anything else here's my e-mail addy.



  Thanks!
            
Submit corrections

comments powered by Disqus
↑ Back to top | Pink Floyd Tabs for Have A Cigar. Lyrics for acoustic guitar and electric guitar. Tablatures and chords are parodies/interpretations of the original songs. You may use it for private study, scholarship, research or language learning purposes only