» » »

Happiest Days Bass tabs (ver.1)

Artists:  A B C D E F G H I J K L M N O P Q R S T U V W X Y Z # 

Happiest Days Bass tabs (ver.1)

Pink Floyd
Rating:
0/5 (0 votes)

Hard to play? Try these video lessons and learn fast.
                "The Happiest Days of our Lives"
G --------------------------------------------------------------------------
D --------------------------------------------------------------------------
A ---5(3)---5---5(3)---5-5-5-3-3-3------------------------------------------
D --------------------------------5-5-5-5-3-3-3--5---5---5---5---5-7---5-7--

G --------------------------------------------------------------------------
D --------------------------------------------------------------------------
A -------------------3------------------------------------------------------
D ---5-7---5-7---5-7---5-7(5)---5-7---5-7---7-5-3---3-5-7---7-5-0---5-7---7-

G --------------------------------------------------------------------------
D --------------------------------------------------------------------------
A ---------------5-5-5-5-3-1-1-1-1-0---------1--3-3-3-3----1-----1-----1----
D ---7---7---7--- -------------------5-5-5-5------------3-----3-----3-----5-
            
Hard to play? Try these video lessons and learn fast. | Correct




comments powered by Disqus
↑ Back to top | Tablatures and chords are parodies/interpretations of the original songs. You may use it for private study, scholarship, research or language learning purposes only