» » »

Great Gig In The Sky Bass

Artists:  A B C D E F G H I J K L M N O P Q R S T U V W X Y Z # 

Great Gig In The Sky Bass

(ver. 2)
Pink Floyd Tabs
 Rating:
4/5 (4 votes)
    Great Gig In The Sky lessons Tabs too difficult? Try these video lessons and learn fast
                and I'm quite confident in the results. Please rate


“The Great Gig in the Sky”
Pink Floyd

G|---------------------5-5-------|
D|--------------5----------------|
A|-12\\------------3~~------3h5--|
E|------3--3-3-------------------|

G|-----------------------------|
D|----5-5--3-------------------|
A|------------5-----3~~-1-3-3--|
E|-3------------6--------------|

G|-------------------3-3---------|
D|------3-3~~--------------------|
A|--------------1~~------1--1-1--|
E|-1~~---------------------------|

G|-------------5-5~~--------------|
D|--------------------3~~---------|
A|-6--6-6---3--------------3------|
E|---------------------------1~~--|

G|---------------------x-3-3~~-------|
D|------1~~--------------------------|
A|-1--1------1~~--1~~-----------1~~--|
E|-----------------------------------|

G|-----------------------------------------------5-5-----|
D|-5--5--3-----------------------5-----------------------|
A|----------5----3~~--x-3-3---------5------1/3~~-3----5--|
E|-------------3--------------3-------3-3----------------|

G|---------------------5-5-5----------------------------------|
D|----5--3---------------------5--3---------------------------|
A|---------5--5--1-3~~---------------5--3-/3--3~~--3-3~~/5-5--|
E|-3----------------------------------------------------------|

G|--------------------------------------------------/5-3-------|
D|----5-5--3----------------------5--5--------------------5----|
A|-----------5--1--1-3~~--3-3--5-------------5--3~~---------3--|
E|-3------------------------------------3-3--------------------|

G|------------------5--------------------------5-------|
D|-5--3--------------------------5-------5-------------|
A|-------5--1---3~~---3-3--5-----------5----3--3-3--5--|
E|----------------------------3-----3------------------|

G|----------------------------------------------|
D|----5--------5--------------------------------|
A|-----------5----3--3-3---5~~-5-4~~-4-----2~~--|
E|-3-----3-3---------------------------2~~------|

G|------------------------3--------------2-------|
D|----------------3---------3----------2----2----|
A|--------------3-----1~~-----1---0~~---------0--|
E|-7~~--7\\-1~~----------------------------------|

G|-------------------------------------------------------------|
D|-----5-5-3------------------5-----------5—5------------------|
A|-----------5--1-3--1-3-1-3-----5------5------3--1-3-1-3~~\\--|
E|-3~~-----------------------------3-3-------------------------|

G|---------------------------8---------------|
D|----3------------------------8-------------|
A|-------3------1--x-1-1--6------6--x-6-5-6--|
E|-1-------1-1-------------------------------|

G|------------------------------------------------------------|
D|----------------3-3--3------3-------1--1--------------------|
A|-3--x-3-3--3--------------3----1--1------1~~-1~~-1-1~~-1~~--|
E|--------------1--------1------------------------------------|


G|----------------------------------5---------|
D|------------------------------------5-------|
A|-10~~--10\\-3--1-3-3-----------3------3--5--|
E|-----------------------3--3-3---------------|

G|--------------------------------------------|
D|-------5~~--5/10~~--------------------------|
A|-----5-------------10-------10~~--10\\-3~~--|
E|-3~~------------------8~~-------------------|

G|-----------------------------|
D|-----------------------------|
A|------3~~--------3~~---------|
E|-3~~--------3~~--------3~~~--|

END
            
Submit corrections

↑ Back to top | Pink Floyd Bass for Great Gig In The Sky. Lyrics for acoustic guitar and electric guitar. Tablatures and chords are parodies/interpretations of the original songs. You may use it for private study, scholarship, research or language learning purposes only