» » »

Goodbye Blue Sky Tabs (ver.3)

Artists:  A B C D E F G H I J K L M N O P Q R S T U V W X Y Z # 

Goodbye Blue Sky Tabs (ver.3)

Pink Floyd
Rating:
0/5 (0 votes)

Hard to play? Try these video lessons and learn fast.
                (4/4)

E |-----------------|-----------------|-----------|-----------------|
B |-----------------|-----------------|-----------|-----------------|
G |-------0---------|-------0---------|-----------|---5---5-------5-|
D |---4-------4---4-|---4-------4---4-|---4-2-----|-----------------|
A |-5---5---5---5---|-5---5---5---5---|-5-----3-2-|-0---0---0---0---|
E |-----------------|-----------------|-----------|-----------------|


E |---------|-----------------|---------|-----------------|-------------------|
B |---------|-----------------|---------|-----------------|-------------------|
G |-4-------|---5---5-------5-|-4-------|---5---5-------5-|---4---4h5p4h5s6-0-|
D |---------|-----------------|---------|-----------------|-------------------|
A |-0-0-0-0-|-0---0---0---0---|-0-0-0-0-|-0---0---0---0---|-0---0-------------|
E |---------|-----------------|---------|-----------------|-------------------|

                                        Repeat x3
E|-----------------|-----------------||-------------------|-------------------|
B|-----------------|-----------------||-------------------|-------------------|
G|-----0-------0---|-----0-------0---||.---11---9-------7-|-----6---6h7p6p7---|
D|---4---4---4---4-|---4---4---4---4-||.-0----0---0---0---|-0-0---0---------0-|
A|-5-------5-------|-5-------5-------||-------------------|-------------------|
E|-----------------|-----------------||-------------------|-------------------|


E |-----------------|------------------||-----------------|-----------------|
B |-----------------|------------------||-----------------|-----------------|
G |-----0-------0---|-----0-------0---.||-------0---------|-------0---------|
D |---4---4---4---4-|---4---4---4---4-.||---4-------4---4-|---4-------4---4-|
A |-2-------2-------|-2-------2--------||-5---5---5---5---|-5---5---5---5---|
E |-----------------|------------------||-----------------|-----------------|


E |-----------------|-----------------|-----------------|-----------------|
B |-----------------|-----------------|-----------------|-----------------|
G |---5---5---5---5-|-4---------------|---5---5---5---5-|-4---------------|
D |-----------------|-----------------|-----------------|-----------------|
A |-0---0---0---0---|-0---0---0---0---|-0---0---0---0---|-0---0---0---0---|
E |-----------------|-----------------|-----------------|-----------------|


E |-----------------|-----------------|-----------------|-----------------|
B |-----------------|-----------------|-----------------|-----------------|
G |---5---5-------5-|-----4---4-4-4-4-|-----2---2-2-2-2-|-----0---0-0-0-0-|
D |-----------------|-----------------|-----------------|-----------------|
A |-0---0---0---0---|-0---0---0---0---|-0---0---0---0---|-0---0---0---0---|
E |-----------------|-----------------|-----------------|-----------------|


E |-----------------|-----------------|-----------------|-----------------|
B |-----------------|-----------------|-----------------|-----------------|
G |-----------------|-----------------|-----0-------0---|-----0-------0---|
D |-----4---4-4-4-4-|-----2-----0---0-|---4---4---4---4-|---4---4---4---4-|
A |-0---0---0---0---|-0---0---0---3---|-2-------2-------|-2-------2-------|
E |-----------------|-----------------|-----------------|-----------------|

                                        Repeat x2
E|-----------------|-----------------||-------------------|-------------------|
B|-----------------|-----------------||-------------------|-------------------|
G|-------0---------|-------0---------||.---11---9-------7-|-----6---6h7p6p7---|
D|---4-------4---4-|---4-------4---4-||.-0----0---0---0---|-0-0---0---------0-|
A|-5---5---5---5---|-5---5---5---5---||-------------------|-------------------|
E|-----------------|-----------------||-------------------|-------------------|


E |-----------------|------------------||-----------------|-----------------|
B |-----------------|------------------||-----------------|-----------------|
G |-----0-------0---|-----0-------0---.||-------0---------|-------0---------|
D |---4---4---4---4-|---4---4---4---4-.||---4-------4---4-|---4-------4---4-|
A |-2-------2-------|-2-------2--------||-5---5---5---5---|-5---5---5---5---|
E |-----------------|------------------||-----------------|-----------------|


E |-----------------|-----------------|-----------------|-----------------|
B |-----------------|-----------------|-----------------|-----------------|
G |---5---5---5---5-|-4---------------|---5---5---5---5-|-4---------------|
D |-----------------|-----------------|-----------------|-----------------|
A |-0---0---0---0---|-0---0---0---0---|-0---0---0---0---|-0---0---0---0---|
E |-----------------|-----------------|-----------------|-----------------|


E |-----------------|-----------------|-----------------|-----------------|
B |-----------------|-----------------|-----------------|-----------------|
G |---5---5-------5-|-----4---4-4-4-4-|-----2---2-2-2-2-|-----0---0-0-0-0-|
D |-----------------|-----------------|-----------------|-----------------|
A |-0---0---0---0---|-0---0---0---0---|-0---0---0---0---|-0---0---0---0---|
E |-----------------|-----------------|-----------------|-----------------|


E |-----------------|-----------------|-----------------|-----------------|
B |-----------------|-----------------|-----------------|-----------------|
G |-----------------|-----------------|-----0-------0---|-----0-------0---|
D |-----4---4-4-4-4-|-----2-----0---0-|---4---4---4---4-|---4---4---4---4-|
A |-0---0---0---0---|-0---0---0---3---|-2-------2-------|-2-------2-------|
E |-----------------|-----------------|-----------------|-----------------|

    Repeat to fade
E ||------------------|------------------||
B ||------------------|------------------||
G ||.-------0---------|-------0---------.||
D ||.---4-------4---4-|---4-------4---4-.||
A ||--5---5---5---5---|-5---5---5---5----||
E ||------------------|------------------||

---                  ___ __

--
            
Hard to play? Try these video lessons and learn fast. | Correct




comments powered by Disqus
↑ Back to top | Tablatures and chords are parodies/interpretations of the original songs. You may use it for private study, scholarship, research or language learning purposes only