» » »

Cirrus Minor Tabs (ver.1)

Artists:  A B C D E F G H I J K L M N O P Q R S T U V W X Y Z # 

Cirrus Minor Tabs (ver.1)

Pink Floyd
Rating:
0/5 (0 votes)

Tabs too difficult? Try these video lessons and learn fast.
                --------0---------------0---------------0---------------0-------
----0-------0-------0-------0-------0-------0-------0-------0---
2---------------1---------------0---------------0---------------

In  -   a_____   church - yard   by___  a   -    ri   -   ver,


--------4---------------4---------------3---------------3-------
----2-------2-------2-------2-------2-------2-------2-------2---
4---------------4---------------3---------------3---------------

la  -   zing    -     in the   haze____        of   mid   day,


--------3---------------3---------------2---------------2-------
----1-------1-------1-------1-------1-------1-------1-------1---
3---------------3---------------2---------------2---------------

laugh   ing___  in - the        gras - ses     and the     gra -


0-----------------------0---------------------------------------
0-----------------------0---------------------------------------
0-------0---1---0-------0---------------------------------------
2-----------------------2---------------------------------------
2-----------------------2---------------------------------------
0-------------------0---0---------------------------------------
            
Tabs too difficult? Try these video lessons and learn fast.




comments powered by Disqus
↑ Back to top | Tablatures and chords are parodies/interpretations of the original songs. You may use it for private study, scholarship, research or language learning purposes only