» » »

Pink Floyd, Childhood's End Tabs (ver.2)

Artists:  A B C D E F G H I J K L M N O P Q R S T U V W X Y Z # 

Childhood's End Tabs (ver.2)

Pink Floyd Tabs
 Rating:
4/5 (4 votes)
Childhood's End lessons Tabs too difficult? Try these video lessons and learn fast
                Here's how I hear it. And this is my first tab, so be gentle ;)

Childhood's End Solo
Pink Floyd
Obscured by clouds

p = pulloff
h = hammer on
b = bend
r = return
> = sustain bend (some sustains are slow releases)
< = return to lower pitch bend
x = fret hand mute
\ = slide down
/ = slide up
pb = prebend/ghost bend
P.M. = palm hand mute


|-----15b(17)>>>>---15----------------------------------------------------------------------|
|-12-------------------15b(17)>>>>>>--15-15-15-15---------------------------12--------------|
|---------------------------------------------------14--16------------12-14----14--12-------|
|---------------------------------------------------------------12/14-----------------14----|
|-------------------------------------------------------------------------------------------|
|-------------------------------------------------------------------------------------------|

|------------------------------------------------------------------------|
|-12b(14)>>>>>>>r12-----------------------------12-----------------------|
|---------------------14--12--------------12-14------14--12--------------|
|------------------------------14-----------------------------14---------|
|------------------------------------------------------------------------|
|------------------------------------------------------------------------|


|-------------------------------------------------15------------------|
|--------15----15b(17)>>>--17b(19)-15-17---15b(17)---r16b(17)>>>------|
|--14/16----16--------------------------------------------------------|
|---------------------------------------------------------------------|
|---------------------------------------------------------------------|
|---------------------------------------------------------------------|

|-------17b(19)--r17-15-17-15-------17b(19)-r17p15-17----|
|--15--------------------------17------------------------|
|--------------------------------------------------------|
|--------------------------------------------------------|
|--------------------------------------------------------|
|--------------------------------------------------------|

|----15-----------------15--------------------------------|
|-------15--15--15b(17)----15b(17)>>>>>---15-15-15-12-----|
|---------------------------------------------------------|
|---------------------------------------------------------|
|---------------------------------------------------------|
|---------------------------------------------------------|

|-------17b(19)>>>>>>--17---------------------------------------------------------|
|--------------------------------17b(19)r17---15--17------------------------------|
|-----------------------------------------------------------pb(16)r14--12---------|
|---------------------------------------------------------------------------14----|
|---------------------------------------------------------------------------------|
|---------------------------------------------------------------------------------|


Hope you enjoy playing it. I sure do!!
            
Submit corrections

comments powered by Disqus
↑ Back to top | Pink Floyd Tabs for Childhood's End. Lyrics for acoustic guitar and electric guitar. Tablatures and chords are parodies/interpretations of the original songs. You may use it for private study, scholarship, research or language learning purposes only