» » »

Careful With That Axe Eugene Tabs (ver.2)

Artists:  A B C D E F G H I J K L M N O P Q R S T U V W X Y Z # 

Careful With That Axe Eugene Tabs (ver.2)

Pink Floyd
Rating:
0/5 (0 votes)

Hard to play? Try these video lessons and learn fast.
                Careful with that Axe, Eugene Pompeii - Bass

Note: this is a  bass arrangemnt for guitar, therefore for bass play up an octave on the twelth fret.

Drop D tuning
DADG

Intro:

let notes ring...|
|------------------------------------|
|-0----0----0----0---0---------------|
|----------------------0-------------|
|---0----0----0----0-----------------| then....

let notes ring...|			   repeat throughout verse
|------------------------------------|
|---0----0----0----0-----------------|
|--------------------0---------------|
|-0----0----0----0-------------------|


Verse 1:

let notes ring...|			   repeat throughout verse
|------------------------------------|
|---0----0----0----0-----------------|
|--------------------0---------------|
|-0----0----0----0-------------------|

"Careful.....Careful.....With That Axe Eugene"

|---------------------------------------------------|
|---------------------------------------------------|
|---------------------------------------------------|
|-0--0--0--0--0--0--0--0--0--0--0--0--0--0--0--0--0-|

the built up for the chorus (AHHHHHHHHHHHHH!!!!!!!!!!! etc.) increase the tempo and volume 

Chorus:

"AAAAAAAHHHHHHHHHHHHHHHHHHH!!!!!!!!!!!!!!!"
"OOOOOOOHHHHHHHHHHHHHHHHHHH!!!!!!!!!!!!!!!"
"IIIIIIIHHHHHHHHHHHHHHHHHHH!!!!!!!!!!!!!!!"
"OOOOOOOHHHHHHHHHHHHHHHHHHH!!!!!!!!!!!!!!!"  etc.

						     repeat through chorus
|--------------------------------------------|
|-----0----------------------0---------------|
|-------0--5-3-0--5-3-0--------0-------------|
|-0-0--------------------0-0-----0-(0)-5-6-7-|

For chorus
|-----------------------|-----------------------|-----------------|
|-----------------5-5---|-----------------3-3---|-----------------|
|-5-5--0--3--5-5--------|-5-5--0--3--5-5--------|--5-5--0--3-5-5--|
|-----------------------|-----------------------|-----------------|

|-----------------|
|-----------------|
|-----------------|
|-5----3(4)--0~~~-|

Fill 
     x5
|-----|---------------------|
|-3-0-|-(3)/5-5--7--5\3--0--|
|-----|---------------------|
|-----|---------------------|  


Verse 2/Outro:

as verse 1 and Intro;

let notes ring...|			   repeat throughout verse
|------------------------------------|
|---0----0----0----0-----------------|
|--------------------0---------------|
|-0----0----0----0-------------------|

"Careful.....Careful.....With That Axe Eugene"

let notes ring...|
|------------------------------------|
|-0----0----0----0---0---------------|
|----------------------0-------------|
|---0----0----0----0-----------------| then....

let notes ring...|			   repeat throughout outro
|------------------------------------|
|---0----0----0----0-----------------|
|--------------------0---------------|
|-0----0----0----0-------------------|

Last bar
|------------------------|
|---0---0---0------------|
|------------------------|
|-0---0---0---0~~~~~~~~~-|  ..........fade out

Note:  watch video and watch Rogert Walters as this may help you get the timing right.
	Some variations are may own work (not all of them) but thay fit the song well.

Thanks.
            
Hard to play? Try these video lessons and learn fast. | Correct




comments powered by Disqus
↑ Back to top | Tablatures and chords are parodies/interpretations of the original songs. You may use it for private study, scholarship, research or language learning purposes only