» » »

Pink Floyd, Breathe In The Air Tabs (ver.1)

Artists:  A B C D E F G H I J K L M N O P Q R S T U V W X Y Z # 

Breathe In The Air Tabs (ver.1)

Pink Floyd Tabs
 Rating:
4/5 (4 votes)
Breathe In The Air lessons Tabs too difficult? Try these video lessons and learn fast
                PINK FLOYD - BREATHE (IN THE AIR)
---------------------------------

Play the first chord of each key change in a quick backwards drag.

    "Breathe...breathe in the air..."
e|-0---------|--------------|-0--------|---------------|
B|-0---------|--------------|-2--------|-2-------3---2-|
G|-0---------|--0-----------|-2--------|---2-----------|
D|-4---------|--4-----------|-2--------|-----2-----2---|
A|-2---------|--2-----------|-0--------|-------0-------|
E|-0---------|--0-----------|-0--------|---------------|

This repeats until the chorus. Just pick around these chords.

  "Long you live..."   "Smiles you'll give..." "All you touch..."
e|-0------------------|-2---------------------|-0-----------------|
B|-0------------------|-3---------------------|-1-----------------|
G|-0------------------|-4---------------------|-2-----------------|
D|-2------------------|-4---------------------|-3-----------------|
A|-3------------------|-2---------------------|-3-----------------|
E|--------------------|-----------------------|-------------------|

"Is all your life will ever be..."
e|-0----------------------------------0--|
B|-3-------------------6--------4-----0--|
G|-4-------------------5--------5-----0--|
D|-5-------------------4--------4-----4--|
A|-5-------------------5--------5-----2--|
E|------------------------------------0--|

That's it.
            
Submit corrections

comments powered by Disqus
↑ Back to top | Pink Floyd Tabs for Breathe In The Air. Lyrics for acoustic guitar and electric guitar. Tablatures and chords are parodies/interpretations of the original songs. You may use it for private study, scholarship, research or language learning purposes only