>
 >
Atom Heart Mother 2

Atom Heart Mother 2 Guitar Tabs

Pink Floyd - Atom Heart Mother 2 chords, tabs, tablatures, lyrics

Guitar lessons | Add/correct | Request | Top 50 tabs Artists:  A B C D E F G H I J K L M N O P Q R S T U V W X Y Z 0-9

Atom Heart Mother 2 Guitar Tabs – Pink Floyd

CD, Sheet music, Poster

Do you like Atom Heart Mother 2? Share with your friends now
Bass TabsChordsTabsTabs v2Tabs v3Ukulele
PINK FLOYD - Atom Heart Mother 
Solo at 10:48 ("Mother Fore")


Bass during solo :

G|--------------------------|---------------------------------|
D|-------5~-5-5-5-5-5-3-----|Variation------5----3--3----3h5--|
A|-----------------------5--|------------------5-------5------|
E|--3-3---------------------|-----------3-3-------------------|

Chords pattern : Gm - C 

Guitar solo :

10:48			
e|-----------------------------------------------------|
B|--18b20~--20r18--------------------------------------|
G|------------------15b====17---17b19--17--15--17------|
D|-----------------------------------------------------|
A|-----------------------------------------------------|
E|-----------------------------------------------------|

			      11:02
e|-----------------------------------------------------|
B|-----------------------------------------------------|
G|--17b18--17b19r17b19-(...)--b19r17--15---------------|
D|---------------------------------------17--15--15h17-|
A|-----------------------------------------------------|
E|-----------------------------------------------------|

e|-----------------------------------------------------|
B|-------------------------------18-------18--------18-|
G|--15-------17b19r17--15--17b19----17b19----17b19-----|
D|-----(17)--------------------------------------------|
A|-----------------------------------------------------|
E|-----------------------------------------------------|

		       11:16
e|-----------------------------------------------------|
B|---------------------------18--20--18----------------|
G|--17b19r17b19-(...)--17b19-------------19r17--15-----|
D|-----------------------------------------------------|
A|-----------------------------------------------------|
E|-----------------------------------------------------|

e|-----------------------------------------------------|
B|-----------------------------------------------------|
G|--17-17b19--17b19~----------15--17b19--17--15--17----|
D|----------------------15h17--------------------------|
A|-----------------------------------------------------|
E|-----------------------------------------------------|

			      11:30
e|-----------------------------------18----------------|
B|----------------------------18b20------18--18b20-----|
G|--17b19r17b19=====r17--------------------------------|
D|-----------------------------------------------------|
A|-----------------------------------------------------|
E|-----------------------------------------------------|

e|-----------------------------------------------------|
B|--18b20--20r18--15--18----15-------------------------|
G|-----------------------17------------15--17b19--15---|
D|------------------------------15h17------------------|
A|-----------------------------------------------------|
E|-----------------------------------------------------|

e|--------------|
B|--------------|
G|--------------|
D|--15h17-(...)-|
A|--------------|
E|--------------|

11:43	   Hold bend
e|---20b22-b22-b22...(x13)-r21r20--18-15--18-15~-------|
B|-----------------------------------------------------|
G|-----------------------------------------------------|
D|-----------------------------------------------------|
A|-----------------------------------------------------|
E|-----------------------------------------------------|

e|-----------------------------------------------------|
B|-----------------------------------------------------|
G|--17b19r17-15--17b18-17b18--------15--17b18r17-------|
D|----------------------------15h17--------------------|
A|-----------------------------------------------------|
E|-----------------------------------------------------|

e|-----------------------------------------------------|
B|-------------------------17b18r17--15------------15--|
G|--15h17-15b====16--------17b19r17--15------------15--|
D|---------------------------------------15-15h17------|
A|-----------------------------------------------------|
E|-----------------------------------------------------|

e|-----------------------------------------------------|
B|-----------------------------------------------------|
G|----------7r5--3--5-5b6-5b6...(x10)--3-----3---------|
D|--17~-----------------------------------5-----5~~\---|
A|-----------------------------------------------------|
E|-----------------------------------------------------|

12:08
e|-----------------------------------------------------|
B|---------------------------18-21-18\-----------------|
G|--17b19--17--15--17--17b19------------15-17b19--17---|
D|-----------------------------------------------------|
A|-----------------------------------------------------|
E|-----------------------------------------------------|

e|-----------------------------------------------------|
B|-----------------------------------------------------|
G|--15--17b19--17--15--17b19--15--------15-------------|
D|-------------------------------15h17-----17~~~\------|
A|-----------------------------------------------------|
E|-----------------------------------------------------|

12:15
e|-----------------------------------------------------|
B|-----------------------------18----------------------|
G|-----17b19r17-15-17--17b==19----19r17--15--17b19~-15-|
D|--17-------------------------------------------------|
A|-----------------------------------------------------|
E|-----------------------------------------------------|

e|-----------------------------------------------------|
B|-----------------------------------------------------|
G|------15-----------------------------------------17--|
D|--17-----17~~~~--------------------------15------17--|
A|-------------------17r15--13--15--15b17-----17-------|
E|-----------------------------------------------------|

e|----------------------------------|
B|----------15b==16--------15-------|
G|--17------15b==16--------15-------|
D|--17--17-----------15h17----17~~--|
A|----------------------------------|
E|----------------------------------|

12:29
e|-----------------------------------------------------|
B|-(17)-----(17)----17-----17------15--15--------------|
G|--17~------17-----17-----17------15--15--------------|
D|--17~---17-17--17-17--17-17--15--15--15--------------|
A|-----------------------------------------17~~--------|
E|-----------------------------------------------------|

Fade

12:36
e|-----------------------------------------------------|
B|--17b18 b18-b18r==17--15b16---------15---------------|
G|--17b19-b19-b19r==17--15b17---------15---------------|
D|-----------------------------15h17-----17~~~---------|
A|-----------------------------------------------------|
E|-----------------------------------------------------|

12:43
e|------------------------------------|
B|--6--------6------------------------|
G|--5b7------5b7r5--3-5-5b7--3--------|
D|------------------------------3--5--| : 2 times
A|------------------------------------|
E|------------------------------------|



Key :

h : hammer on
b : bend
r : release
b==== : bend progressively
/ : slide upwards
\ : slide backwards
~ : "vibrato"
(17) : N.H.


24.11.2005, France.





Comments


Popular Pink Floyd tabs & chords
Another Brick In The Wall Bass Tabs
Careful With That Axe Eugene Bass Tabs
In The Flesh Bass Tabs
A Great Day For Freedom Chords
Final Cut Tabs
Shine On You Crazy Diamond 1 Tabs
The Show Must Go On Tabs
Wish You Were Here Tabs
Wish You Were Here 7 Tabs
A Saucerful Of Secrets Ukulele


Song lyrics



↑ Back to top | Tablatures and chords are parodies/interpretations of the original songs. You may use it for private study, scholarship, research or language learning purposes only
© 2014 AZChords.com Contact us | Privacy policy | DMCA | Add/correct tabs | Request tabs | Top 50 tabs