» » »

Astronomy Domine Tabs (ver.1)

Artists:  A B C D E F G H I J K L M N O P Q R S T U V W X Y Z # 

Astronomy Domine Tabs (ver.1)

Pink Floyd
Rating:
0/5 (0 votes)

Hard to play? Try these video lessons and learn fast.
                I've done the same about books where they only have a few chords
which aren't even right half the time. So, here is an incomplete, but
decent version of Astronomy Domine, most of it's there except for the
weird soloing throughout, you'll probably want to change it around to
suit your personal taste. This is sort of a cross between the
UmmaGumma and Piper at the Gates of Dawn versions, as both had
slightly different guitar parts.

- Astronomy Domine -

  intro part 
|---------------------0--0----------------0--0-----------------------------|
|---------------------0--0----------------0--0---0--0--0-------------------|
|---------------------1--0----------------1--0---0--0--0-------------------|
|---------------------2--1----------------2--1---1--1--1-------------------|
|---------------------2--1----------------2--1---1--1--1-------------------|
|-0--0--0--0--1/3--0--0--0--0--0--1/3--0--0--0-----------------------------|

The main chorus goes something like: 
 (play barre chords in sequence with 6th string bass note)
 
E                                                       G       A   
Lime and limpid green the second scene the between the who you once knew
 

G                                                      G#   A
Floating down the sound resounds around the icy waters underground
 

            E                 G      A     
Jupiter and Saturn     ever on there own around Titania
|-0---------------0--0----|
|-0---------------0--0----|
|-1---------------0--1----|
|-2---------------1--2----|
|-2---------------1--2----|
|-0---------------0--0----|

 

G                             G#
Neptune, Titan, stars can frighten...

 You..................
|-12-12-12-11-11-11-10-10-10-9-9-9-8-8-8-7-7-7-6-6-6-5-5-5-----------------|
|-10-10-10--9--9--9--8--8--8-7-7-7-6-6-6-5-5-5-4-4-4-3-3-3-----------------|
|--------------------------------------------------------------------------|
|--------------------------------------------------------------------------|
|--------------------------------------------------------------------------|
|--------------------------------------------------------------------------|

|-10-10-----9-9---8-8---7-7---6-6---5-5---4-4---3-3------------------------|
|-10----10--9---9-8---8-7---7-6---6-5---5-4---4-3---3----------------------|
|-11-------10-----9-----8-----7-----6-----5-----4--------------------------|
|--------------------------------------------------------------------------|
|--------------------------------------------------------------------------|
|--------------------------------------------------------------------------|

|-2--------2--------3--------3------3-\----0-------------------------------|
|-3--3---3---3---3--4--4---4---4----4-\----0-------------------------------|
|-2----2-------2----3----3-------3--3-\----1-------------------------------|
|-0-----------------1---------------1-\----2-------------------------------|
|------------------------------------------2-------------------------------|
|------------------------------------------0-------------------------------|

 I doubt I got the words right, but you get the idea.

 Someone else posted this solo a long time ago, forget who,
 but it sounds good to me. 

E-|-12-12-12-12-12-12-12-12-12-12-12-12-12-12-12-12-|
B-|-------------------------------------------------|
G-|-------------------------------------------------|
D-|-------------------------------------------------|
A-|-------------------------------------------------|
E-|-------------------------------------------------|
                                                                               
     Eb                          
E-|-11-11-11-11-11-11-11-11-11-11-11-11-11-11-11-11-|
B-|-------------------------------------------------|
G-|-------------------------------------------------|
D-|-------------------------------------------------|
A-|-------------------------------------------------|
E-|-------------------------------------------------|
                                                                               
    G                                   A                              
E-|-3-3sl10-10-10sl3-3-3sl10-10-10sl5-|-5-----------------|
B-|-----------------------------------|---5---------------|
G-|-----------------------------------|-----7b8-----------|
D-|-----------------------------------|---------7~~~~~----|
A-|-----------------------------------|-------------------|
E-|-----------------------------------|-------------------|


Well, hope this helps
-- 
 -`-__||__-'- Call -Low Budget Land-    -`-__||__-'- .. .  .  .  .  .
            
Hard to play? Try these video lessons and learn fast. | Correct




comments powered by Disqus
↑ Back to top | Tablatures and chords are parodies/interpretations of the original songs. You may use it for private study, scholarship, research or language learning purposes only