» » »

Arnold Layne Bass tabs (ver.3)

Artists:  A B C D E F G H I J K L M N O P Q R S T U V W X Y Z # 

Arnold Layne Bass tabs (ver.3)

Pink Floyd
Rating:
0/5 (0 votes)

Hard to play? Try these video lessons and learn fast.
                Arnold Layne
Pink floyd

Tuning:EADG


G||-------------------------|--------------------------|
D||-------------------------|--------------------------|
A||-------------------------|--1--1--1--1--1--1--1--1--|
E||--5--6-------------------|--------------------------|

--------------------------|--------------------------|
--------------------------|--------------------------|
--1--1--1--1--1--1--1--1--|--------------------------|
--------------------------|--1--1--1--1--1--1--1--1--|

--------------------------|--------------------------|
--------------------------|--------------------------|
--------------------------|--------------------------|
--3--3--3--3--3--3--3--3--|--2--2--2--2--2--2--2--2--|

--------------------------|--------------------------|
--------------------------|--------------------------|
--------------------------|--------------------------|
--1--1--1--1--1--1--1--1--|--1--1--1--1--1--1--1--1--|

--------------------------|--------------------------|
--------------------------|--------------------------|
--1--1--1--1--1--1--1--1--|--------------6--6--6--6--|
--------------------------|--4--4--4--4--------------|

--------------------------|------------------------|-----------------------|
--------------------------|------------------------|-----------------------|
--------------------------|----------6--4-----1----|--1----1--1----1--1----|
--1--1--1--1--1--1--1--1--|--1---------------------|-----------------------|

------------------------|--------------------------|-------------------------|
------------------------|--------------------------|-------------------------|
------------------------|--1--1--1--1--1--1--1--1--|--1--1--1--1--1--1--1--1-|
-5--6----L--L--L--L--L--|--------------------------|-------------------------|


  E  E  E  E  E  E  E  E     E  E  E  E  E  E  E  E
--------------------------|--------------------------|
--------------------------|--------------------------|
--------------------------|--------------------------|
--1--1--1--1--1--1--1--1--|--3--3--3--3--3--3--3--3--|


  E  E  E  E  E  E  E  E     E  E  E  E  E  E  E  E
--------------------------|--------------------------|
--------------------------|--------------------------|
--------------------------|--------------------------|
--2--2--2--2--2--2--2--2--|--1--1--1--1--1--1--1--1--|


  E  E  E  E  E  E  E  E     E  E  E  E  E  E  E  E
--------------------------|--------------------------|
--------------------------|--------------------------|
--------------------------|--1--1--1--1--1--1--1--1--|
--1--1--1--1--1--1--1--1--|--------------------------|


--------------------------|--------------------------|----------------------|
--------------------------|--------------------------|----------------------|
--------------6--6--6--6--|--------------------------|----------6--4-----1--|
--4--4--4--4--------------|--1--1--1--1--1--1--1--1--|--1-------------------|

-----------------------|----------------------|----------------------|
-----------------------|----------------------|----------------------|
--1----1--1----1--1----|----------------------|--1----1----1----1----|
-----------------------|--4----4----4----4----|----------------------|

----------------------|----------------------|----------------------|
----------------------|----------------------|----------------------|
----------------------|--1----1----1----1----|--4-------------------|
--4----4----4----4----|----------------------|-------4----4----4----|

----------------------|----------------------|----------------------|
----------------------|----------------------|----------------------|
--6----6----6----6----|--4-------------------|--6----6----6----6----|
----------------------|-------4----4----4----|----------------------|

----------------------|----------------------|----------------------|
----------------------|----------------------|----------------------|
----------------------|--6----6----6----6----|----------------------|
--1----1----1----1----|----------------------|--4----4----4----4----|

----------------------|----------------------|----------------------|
----------------------|----------------------|----------------------|
----------------------|--1----1----1----1----|--1----1----1----1----|
--4----4----4----4----|----------------------|----------------------|

----------------------||
----------------------||
--6----6--------------||
------------4----4----||


L - tied note
x - dead note
g - grace note
(n) - ghost note
> - accentuded note
NH - natural harmonic
AH - artificial harmonic
TH - tapped harmonic
SH - semi harmonic
PH - pitch harmonic
h - hammer on
p - pull off
b - bend
br - bendRelease
pb - preBend
pbr - preBendRelease
brb - bendReleaseBend
S - shift slide
s - legato slide
~ - vibrato
W - wide vibrato
tr - trill
TP - tremolo picking
T - tapping
S - slap
P - pop
< - fade in
^ - brush up
v - brush down
            
Hard to play? Try these video lessons and learn fast. | Correct




comments powered by Disqus
↑ Back to top | Tablatures and chords are parodies/interpretations of the original songs. You may use it for private study, scholarship, research or language learning purposes only