» » »

Pink Floyd, A Pillow Of Winds Tabs (ver.2)

Artists:  A B C D E F G H I J K L M N O P Q R S T U V W X Y Z # 

A Pillow Of Winds Tabs (ver.2)

Pink Floyd Tabs
 Rating:
4/5 (6 votes)
A Pillow Of Winds lessons Tabs too difficult? Try these video lessons and learn fast
1
                	/~Pink Floyd~/
	 Meddle - A Pillow of winds (Simplified ver.)
	 Tab by: Adrian Navarro
/--------------------------------------/
It's not a hundread percent acurate, because I learned it by ear, but it's still nice.
updates and/or corrections/comments are welcomed! P.s it's played at a moderately fast tempo.

	Intro:
E ||-----------------------------------------------|---------------------------------------------|
B ||--0--------------0-----------------------------|-0--------------0----------------------------|
G ||-----------------------------------------------|---------------------------------------------|
D ||-----------6-----------6-----------------------|----------6-----------6----------------------|
A ||--9-----7-----9-----7-----9-----7-----9-----7--|-9-----7-----9-----7-----9-----7-----9-----7-|
E ||-----------------------------------------------|---------------------------------------------|

E  |-----------------------------------------------|---------------------------------------------|
B  |-----------------------------------------------|--------------------------------------5-----7|
G  |--6--------------6-----------------------------|--6--------------6--------------------6-----9|
D  |-----------7-----------7-----------------------|-----------7-----------7---------------------|
A  |--9-----7-----9-----7-----9-----7-----9-----7--|--9-----7-----9-----7-----9-----7------------|
E  |-----------------------------------------------|---------------------------------------------|

E  |--------------------------------------------------|
B  |--9-----------------------------------------------|
G  |--8---------------8-------------------------------|
D  |-----------9------------9-------------------------|
A  |--------7-----11-----7-----11-----7-----11-----7--|
E  |--------------------------------------------------|

E  |--------------------------------------------------|
B  |--------------------------------------------------|
G  |--8---------------8-------------------------------|
D  |-----------9------------9-------------------------|
A  |--11----7-----11-----7-----11-----7-----11-----7--|
E  |--------------------------------------------------|

	Verse:

E  |-----------------------------------------------|---------------------------------------------|
B  |-----------------------------------------------|--------------------------------------5-----7|
G  |--6--------------6-----------------------------|--6--------------6--------------------6-----9|
D  |-----------7-----------7-----------------------|-----------7-----------7---------------------|
A  |--9-----7-----9-----7-----9-----7-----9-----7--|--9-----7-----9-----7-----9-----7------------|
E  |-----------------------------------------------|---------------------------------------------|
            A Cloud  -  of  -  eider    -    down     Draws around - me       soften  -   ing -the


E  |--------------------------------------------------|
B  |--9-----------------------------------------------|
G  |--8---------------8-------------------------------|
D  |-----------9------------9-------------------------|
A  |--------7-----11-----7-----11-----7-----11-----7--|
E  |--------------------------------------------------|
    - sound							

E  |--------------------------------------------------|
A  |--------------------------------------------------|
G  |--8---------------8-------------------------------|
D  |-----------9------------9-------------------------|
A  |--11----7-----11-----7-----11-----7-----11-----7--|
E  |--------------------------------------------------|
					    Sleepy ---

E  |-----------------------------------------------|
B  |--7--------------7-----------------------------|
G  |-----------7-----------7-----------------------|
D  |--4-----0-----4-----0-----4-----0-----4-----0--|
A  |-----------------------------------------------|
E  |-----------------------------------------------|
    - time	  and - I  -  lie    	  with  my    

|-----------------------------------------------------------|
|--7--------------7--------------------------------9---7----|
|-----------7-----------7-----------------------------------|
|--4-----0-----4-----0-----4-----0-----4-----0-----6---4----|
|-----------------------------------------------------------|
|-----------------------------------------------------------|
   love	      at    my    side        and   she's breathing


E  |-----------------------------------------------|---------------------------------------------|
B  |--7--------------7-----------------------------|--7--------------7---------------------------|
G  |-----------7-----------7-----------------------|-----------7-----------7---------------------|
D  |--4-----0-----4-----0-----4-----0-----4-----0--|--4-----0-----4-----0-----4-----0-----4-----0|
A  |-----------------------------------------------|---------------------------------------------|
E  |-----------------------------------------------|---------------------------------------------|
    - low	   


E  |-----------------------------------------------|--10----10-----10/12-------------12----12----|
B  |--10-----10-----10/12------------12----12------|---------------------------------------------|
G  |-----------------------------------------------|--7-----7------7/9---------------9-----9-----|
D  |--7------7------7/9--------------9-----9-------|---------------------------------------------|
A  |-----------------------------------------------|---------------------------------------------|
E  |-----------------------------------------------|---------------------------------------------|
      And -  the -  candle	     dies

then the rest loops this:

E  |---------------------------------------------||
B  |--0--------------0--------------0------------||
G  |-----------0--------------0--------------0---||
D  |--------4--------------4--------------4------||
A  |---------------------------------------------||
E  |---------------------------------------------||


Enjoy!
            
Submit corrections

comments powered by Disqus
↑ Back to top | Pink Floyd Tabs for A Pillow Of Winds. Lyrics for acoustic guitar and electric guitar. 1 Tablatures and chords are parodies/interpretations of the original songs. You may use it for private study, scholarship, research or language learning purposes only