» » »

Hymn Tabs (ver.2)

Artists:  A B C D E F G H I J K L M N O P Q R S T U V W X Y Z # 

Hymn Tabs (ver.2)

Pig Destroyer
Rating:
0/5 (0 votes)

Hard to play? Try these video lessons and learn fast.
                This song was hard to figure out, just because of the massive guitar tone used by Scott 
I'm still not 100% about this song and there are only three riffs in the whole thing, 
this seems to be the most accurate.
It may not be in standard tuning, as I don't know the tuning on the rest of the album or 
scott used a 7 or a downtuned guitar, but if it isn't you can just move the chords 

I would suggest getting a huge tone, lots of distortion and a gain boost if possible, 
otherwise the riff sounds sorta weak.

Intro:
|----------|---------------------|
|----------|---------------------|
|----------|---------------------|
|--4--6----|--4--6---------------|
|--4--6--5-|--4--6--5--5-5-5-5---|
|--2--4--5-|--2--4--5--5-5-5-5---|
|--------3-|--------3--3-3-3-3---|
 3x

Verse 1
|---------------------------------|
|---------------------------------|
|-4-------------------------------|
|-4--5-5--5-5--5--5-5--5-5-5-5-5--|
|-2--4-4--4-4--4--4-4--4-4-4-4-4--|
|----3-3--3-3--3--3-3--3-3-3-3-3--|

|---------------------------------|
|---------------------------------|
|-6-------------------------------|
|-6--5-5--5-5--5--5-5--5-5-5-5-5--|
|-4--4-4--4-4--4--4-4--4-4-4-4-4--|
|----3-3--3-3--3--3-3--3-3-3-3-3--|

Verse 2
|------------------|
|------------------|
|------------------|
|------------------|
|-4-3-4-3-4-3-4-3--|
|------------------|
2x

|----------------------------------|
|----------------------------------|
|----------------------------------|
|----------------------------------|
|-6-3-6-3-6-3--1---1---1---1---1---|
|----------------1---1---1---1---1-|

keep on rottin' in the free world.
            
Hard to play? Try these video lessons and learn fast. | Correct




comments powered by Disqus
↑ Back to top | Tablatures and chords are parodies/interpretations of the original songs. You may use it for private study, scholarship, research or language learning purposes only