» » »

Phish, Run Like An Antelope Tabs (ver.1)

Artists:  A B C D E F G H I J K L M N O P Q R S T U V W X Y Z # 

Run Like An Antelope Tabs (ver.1)

Phish Tabs
 Rating:
4/5 (4 votes)
Run Like An Antelope lessons Tabs too difficult? Try these video lessons and learn fast

WWW.AZCHORDS.COM | Phish Tabs - Run Like An Antelope Tabs (ver. 1)


Phish- Run Like An Antelope

Intro

E----------------------------------------------------------
B-----------10101010-7777----------------------------------
G-----7h9p7---------------9-7h9p7--------------------------    X 5
D--9--------------------------------------------------------
A----------------------------------------------------------
E----------------------------------------------------------
      
     ptA              pt B

E--10--8-----------10----10---------------------------------------
B--10--11----------10----12----------------------------------------
G--11--11--X 5-----11----12----------------------------------------
D--12--11----------12----12----------------------------------------
A--12--8-----------12----10---------------------------------------
E--10--8-----------10----10---------------------------------------

		Pt C
E-----10----7-----------------------------------------------------
B------------------9--------------------------------------------
G--7-----7-----7------7h9---9h11p9/7------------------------------------------
D----------------------------------------------------------------
A-----------------------------------------------------------------
E-----------------------------------------------------------------

reapeat part a ----->part b ------> Part C

then jam it up
            
Submit corrections

↑ Back to top | Phish Tabs for Run Like An Antelope. Lyrics for acoustic guitar and electric guitar. Tablatures and chords are parodies/interpretations of the original songs. You may use it for private study, scholarship, research or language learning purposes only