» » »

Funky Bitch Tabs (ver.1)

Artists:  A B C D E F G H I J K L M N O P Q R S T U V W X Y Z # 

Funky Bitch Tabs (ver.1)

Phish
Rating:
0/5 (0 votes)

Hard to play? Try these video lessons and learn fast.
                (Intro)
Intro:
E--------------------------|--13b15--11^(1/4)-------------13b15--13b15--13-------------|
B--11-------11-------11-13-|-------------------13-11-13--------------------13-11----13-|
G-----12-12----12-12-------|-----------------------------------------------------12----|
D--------------------------|-----------------------------------------------------------|
A--------------------------|-----------------------------------------------------------|
E--------------------------|-----------------------------------------------------------|

                       P-O
E--------11^(1/4)------------------------11-13-13b15--13b15---11-----13b15--13b15--13---|
B-----11----------13--13-11----13-----13-------------------------13---------------------|
G--12-----------------------12----------------------------------------------------------|
D---------------------------------------------------------------------------------------|
A---------------------------------------------------------------------------------------|
E---------------------------------------------------------------------------------------|

       P-O                           P-O                          P-O
E----------------------11^(1/4)---------------------13b15--13b15b13-11--13b15-13b15---|
B--13-13-11----13----11---------13--13-11----13---------------------------------------|
G-----------12-----12---------------------12------------------------------------------|
D-------------------------------------------------------------------------------------|
A-------------------------------------------------------------------------------------|
E-------------------------------------------------------------------------------------|
                    P-O
E--13b15--11^(1/4)---------------------------------------|
B------------------13-11----13---11-------11-------11-13-|
G------------------------12---------12-12----12-12-------|
D--------------------------------------------------------|
A--------------------------------------------------------|
E--------------------------------------------------------|
            
Hard to play? Try these video lessons and learn fast. | Correct




comments powered by Disqus
↑ Back to top | Tablatures and chords are parodies/interpretations of the original songs. You may use it for private study, scholarship, research or language learning purposes only