» » »

Phish, Funky Bitch Bass tabs (ver.1)

Artists:  A B C D E F G H I J K L M N O P Q R S T U V W X Y Z # 

Funky Bitch Bass tabs (ver.1)

Phish Tabs
Rating:
0/5 (0 votes)
Funky Bitch lessons Tabs too difficult? Try these video lessons and learn fast
                Intro

G -------------------
D -------------------
A -1-----1-----1-3---
E ---3-3---3-3-------

Verse

G ------------------------------
D ------------10-8----8h10p8----
A -----8h10-8------10-------10--   repeat
E -8-8--------------------------


G -10-8---8h10p8--------------10-8----8h10p8---------------------
D ------10------10-----8h10p8------10-------10-------------------
A -----------------8-8--------------------------1-----1-----1h3--
E ------------------------------------------------3-3---3-3------

Into the Jam!!
            
Submit corrections

comments powered by Disqus
↑ Back to top | Phish Bass for Funky Bitch. Lyrics for acoustic guitar and electric guitar. Tablatures and chords are parodies/interpretations of the original songs. You may use it for private study, scholarship, research or language learning purposes only