» » »

Phish, Carini Tabs (ver.1)

Artists:  A B C D E F G H I J K L M N O P Q R S T U V W X Y Z # 

Carini Tabs (ver.1)

Phish Tabs
Rating:
0/5 (0 votes)
Carini lessons Tabs too difficult? Try these video lessons and learn fast
                This song is relatively easy to nail if you practice it a couple of times while
listening to Phish playing it on an iPod or something. I actually wanted to post this 
here for a while but I didn't have an account yet or the time to make one, so this is 
good. And I also actually went to Worchester, Massachusetts on Tuesday, December 28th, 
2010 to
see Phish at the DCU Center and they opened the second set with this song and it was 
insane. But I really should get to tabbing this before you leave the page, hahaha. ok here 
it is:


Intro:                                                vG^pE     vG^pE
e|-------------------------------------------------------------------------|
B|-------------------------------------------------------------------------|
G|---9--9--9--9--9-9-9-9--xxx--9--9--9--9-x-9-9-9-9-xx---------------------|
D|--10-10-10-10--9-9-9-9--xxx-10-10-10-10-x-9-9-9-9-xx---------------------|
A|---7--7--7--7--7-7-7-7--xxx--7--7--7--7-x-7-7-7-7-xx---------------------|
E|-----------------------------------------------------3^p0-----03^p0------|


Verse:
e|-------------------------------------------------------------------------|
B|-------------------------------------------------------------------------|
G|---9--9--9--9--9-9-9-9--xxx---9--9--9--9--9-9-9-9-xx---------------------|
D|--10-10-10-10--9-9-9-9--xxx--10-10-10-10--9-9-9-9-xx---------------------|
A|---7--7--7--7--7-7-7-7--xxx---7--7--7--7--7-7-7-7-xx---------------------|
E|-----------------------------------------------------3^p0-----03^p0------|

Pre-Chorus:                                          |Chorus:
e|---------------------------------------------------|---------------------|
B|---------------------------------------------------|---------------------|
G|---9--9--9--9--9-9-9-9--xx---9--9--9--9--9-9-9-9-xx|---------------------|
D|--10-10-10-10--9-9-9-9--xx--10-10-10-10--9-9-9-9-xx|---------------------|
A|---7--7--7--7--7-7-7-7--xx---7--7--7--7--7-7-7-7-xx|---------------------|
E|---------------------------------------------------|-3^p0----------------|

Solo: They go off into a jam in Em, I think... And then there is a good riff when Trey
slows it down a bit. I can't exactly tab it though, but I will have it posted by February
vacation in 2011(I added "in 2011" because I didn't want future readers to think they 
have to wait for it even longer if I already had posted it). So once I figure it out I will
post it almost immediately. So these are the lyrics to save you the trouble of going to 
another site:

Verse 1:

G^pE                                         G^pE
   I saw you with Carini and that naked dude.        I couldn't eat my food.

G^pE                     G^pE
   Lucy had a lumpy head.        Lucy took a walk, now Lucy's dead.

G^pE                             G^pE
   You told me of a secret place.        I saw it when I met you, the walrus on your face.

Chorus:

G^pE
   The killer scared the sh*t out of the ram.

Verse 2:

G^pE                                                G^pE
   The thesis that you're writing is a load of sh*t.      But I'm glad you finally
finished it.

G^pE                                               G^pE
   He went across the street and he called his dad.     Now you'll never get the raise
you thought you had.

G^pE                                                    G^pE
   The people all were screaming when they saw the lump.   Everyone was screaming when
they saw the lump.

Chorus
            
Submit corrections

comments powered by Disqus
↑ Back to top | Phish Tabs for Carini. Lyrics for acoustic guitar and electric guitar. Tablatures and chords are parodies/interpretations of the original songs. You may use it for private study, scholarship, research or language learning purposes only