» » »

Phil Collins, In The Air Tonight Tabs (ver.1)

Artists:  A B C D E F G H I J K L M N O P Q R S T U V W X Y Z # 

In The Air Tonight Tabs (ver.1)

Phil Collins Tabs
 Rating:
4.6/5 (9 votes)
In The Air Tonight lessons Tabs too difficult? Try these video lessons and learn fast
1
                Tuning: DADGBe (Drop D)

Listen closely to the song because some of the guitar parts are hard to hear. (Note: the 
are played by a keyboard)

 0:05           0:26
|-----------|  |-----------------|
|-----------|  |-13h15b17----r15-|
|-----------|  |-----------------|
|-0---------|  |-----------------|
|-----------|  |-----------------|
|-0---------|  |-----------------|

0:32
Dmin C A# x2

Dmin          C                     A#         C
I can feel it coming in the air tonight, Oh Lord

Dmin                           C             A#      C
I\'ve been waiting for this moment, all my life, Oh Lord

Dmin             C                       A#     C
Can you feel it coming in the air tonight, Oh Lord, Oh Lord

  Dmin
|-----------|
|-----------|
|-----------|
|-0---------|
|-----------|
|-0---------|

Dmin
Well, if you told me you were drowning

C
I would not lend a hand

A#
I\'ve seen your face before my friend

C
But I don\'t know if you know who I am

|-----------|
|-----------|
|-----------|
|-----------|
|-3---------|
|-----------|
(start from a low volume and raise it up)

Dmin
Well, I was there and I saw what you did

C
I saw it with my own two eyes

|---------------|
|---------------|
|---------------|
|-12b14-----r12-|
|---------------|
|---------------|

A#
So you can wipe off the grin, I know where you\'ve been

C
It\'s all been a pack of lies

|------------|
|-15b16r14---|
|-14b15r14---|
|------------|
|------------|
|------------|

Dmin          C                     A#
And I can feel it coming in the air tonight,

|-15b16r15---|
|-15b16r15---|
|------------|
|------------|
|------------|
|------------|

C
Oh Lord

|-/13---------|
|-/13--13--15-|
|------12--14-|
|-------------|
|-------------|
|-------------|


Dmin                           C             A#      C
I\'ve been waiting for this moment for all my life, Oh Lord

Dmin             C            A#
I can feel it in the air tonight,
|---------------|
|---------------|
|-12b13-----r12-|
|---------------|
|---------------|
|---------------|

C
Oh Lord

Dmin                               C            A#
And I\'ve been waiting for this moment all my life,

|---------------|
|---------------|
|-12b13-----r12-|
|---------------|
|---------------|
|---------------|

     C
Oh Lord, Oh Lord

  Dmin
|-----------|
|-----------|
|-----------|
|-0---------|
|-----------|
|-0---------|


Dmin                                     C
Well I remember, I remember don\'t worry

                                       A#                            Dmin
How could I ever forget, it\'s the first time, the last time we ever met

                                                  C
But I know the reason why you keep your silence up, no you don\'t fool me

A#
The hurt doesn\'t show; but the pain still grows

                            Dmin
It\'s no stranger to you or me


(drums and bass come in)

Dmin        *  C                     A#         C
I can feel it coming in the air tonight, Oh Lord

|------------------|
|------------------|
|------------------|
|-----10--------10-|
|-12--------12-----|
|------------------|(guitar plays this after each line)

Dmin          *               C             A#         C
I\'ve been waiting for this moment, all my life, Oh Lord

Dmin        *         C                 A#         C
I can feel it in the air tonight, Oh Lord, Oh Lord

Dmin          *               C             A#         C
I\'ve been waiting for this moment, all my life, Oh Lord

Dmin        *   C                     A#         C
I can feel it coming in the air tonight, Oh Lord

Dmin          *               C             A#         C
I\'ve been waiting for this moment, all my life, Oh Lord

Dmin        *         C                 A#         C
I can feel it in the air tonight, Oh Lord, Oh Lord

Dmin          *               C             A#         C
I\'ve been waiting for this moment, all my life, Oh Lord


* guitar plays this
|-----|
|-3---|
|-2---|
|-0---|
|-----|
|-0---|
            
Submit corrections

comments powered by Disqus
↑ Back to top | Phil Collins Tabs for In The Air Tonight. Lyrics for acoustic guitar and electric guitar. 1 Tablatures and chords are parodies/interpretations of the original songs. You may use it for private study, scholarship, research or language learning purposes only