» » »

Peter Frampton, Show Me The Way Tabs (ver.1)

Artists:  A B C D E F G H I J K L M N O P Q R S T U V W X Y Z # 

Show Me The Way Tabs (ver.1)

Peter Frampton Tabs
 Rating:
4.7/5 (15 votes)
Show Me The Way lessons Tabs too difficult? Try these video lessons and learn fast
                This is the part that goes with the talk box, this is one of the coolest songs I have
ever heard... (note: listen to the song to adjust tempo)

Intro( 0:20 - 0:33 ):

|---------------------------------------------------------------|
|-------------------------10------------------------------------|
|--------6-7----7-9b-9-7~----7-------------6-7----7-9b-9-7~-7~--|
|-7~-7-9-----9~----------------9-7~----7-9-----9~---------------|
|---------------------------------------------------------------|
|---------------------------------------------------------------|

Verse 1 ( 0:33 - 1:07 ):

D
I wonder how you're feeling there's ringing in my ears.
    Bm                           Bb
And no one to relate to 'cept the sea.
D
Who can I believe in ?   I'm  kneeling on the floor.
      Bm
There has to be a force.  Who do I phone ?
    A7sus4                            G7
The stars are out and shining.  But all I really want to know


Chorus ( 1:08 - 1:23 ):

   Bm                    G
Oh won't you show me the way
       Bm              G    A7sus4
I want you show me the way

After Chorus ( 1:24 - 1:30 ):

|-----------------------------------------------------------|
|--------------7-10-8-10-7--------------------7--9-7~-7~-7~-|
|-------6-7-9--------------9-7~-9-9r9-9-9-7-9---------------|
|-7-9-------------------------------------------------------|
|-----------------------------------------------------------|
|-----------------------------------------------------------|

Second Verse ( 1:31 - 2:06 ):

D
Well, I can see no reason.. you living on your nerves
     Bm                     Bb
When someone drop a cup and I submerge
D
I'm swimming in a circle ... I feel I'm going down
      Bm                   Bb
There has to be a fool to play my part
A7sus4                                  G7
Someone thought of healing..  But all I really want to know


-- Chorus --

Solo ( 2:30 - 2:57 ):

E||---------------------------10-7-----------------------------------|
B||------------7-10-8-10~-8-7------10-7-10-7-------------------------|
G||-----6-7~-9-------------------------------9-7-9r-9-9-7-9h7---7-9~-|
D||-7-9-------------------------------------------------------9------|
A||------------------------------------------------------------------|
E||------------------------------------------------------------------|

---------------------------------------------------------7-7--------|
-------7-10-8-7-----------------------10--------------10-----10-10~-|
-9-7-9----------9r9-7h9---7-9h-9b-9-7----7---7-9b-9-7---------------|
------------------------9------------------9------------------------|
--------------------------------------------------------------------|
--------------------------------------------------------------------|

-----10~-10-9-7-9-7-9-7~-------------10-----------------------------|
-8-7---------------------10-7-10-8-7----8-7-------------------------|
--------------------------------------------9-7-9b9-7-9-7---7-9-7-9-|
----------------------------------------------------------9---------|
--------------------------------------------------------------------|
--------------------------------------------------------------------|

------------------------------------------------------------------||
------------------------------------------------------------------||
-9b9-7-9-7-----------------------7-9b-9-7-9b-9-7-9b-9-7-9b-9-7-7~-||
-----------9-7---------------7-9----------------------------------||
---------------9-8-7-5---5-9--------------------------------------||
-----------------------7------------------------------------------||

Third Verse ( 2:58 - 3:19 ):

D
I wonder if I'm dreaming  I feel so unashamed
  Bm                                 Bb
I can't believe this is happening to me.
A7sus4
I watch you when you're sleeping
           G7
And then I want to take your love


-- Chorus --  Repeat until fade out

THE END

thanks to : "edmondst" for the chords

chords:

CHRD: E-A-D-G-B-E

D: 0-0-0-2-3-2------|
Bm: 2-2-4-4-3-2-----|
Bb: x-1-0-3-3-1-----|
A7sus4: x-0-0-0-3-0-|
G: 3-2-0-0-3-3------|
G7: 3-2-0-0-0-1-----|
            
Submit corrections

comments powered by Disqus
↑ Back to top | Peter Frampton Tabs for Show Me The Way. Lyrics for acoustic guitar and electric guitar. Tablatures and chords are parodies/interpretations of the original songs. You may use it for private study, scholarship, research or language learning purposes only