» » »

Peter Fox, Das Zweite Gesicht Tabs (ver.1)

Artists:  A B C D E F G H I J K L M N O P Q R S T U V W X Y Z # 

Das Zweite Gesicht Tabs (ver.1)

Peter Fox Tabs
 Rating:
4.3/5 (6 votes)
Das Zweite Gesicht lessons Tabs too difficult? Try these video lessons and learn fast
                -------------------------------------------------------------------------------
                         Das Zweite Gesicht  -  Peter Fox
-------------------------------------------------------------------------------

Tuning: E-Standard

//////////////////////////////////////////////
//                                          //
//  RATING THIS TAB TAKES ABOUT 5 SECONDS   //
//  AND HELPS ME TO IMPROVE MY WORK         //
//                                          //
//////////////////////////////////////////////


Strings[1]-Intro
e|------------------------------------------------|
B|------------------------------12----------------|
G|--11\10--9\8--8\7\6----11\10-----8--8\7\6-------|
D|------------------------------------------------|
A|------------------------------------------------|
E|------------------------------------------------|

String[1]- End of Intro
e|------------------------------7\6--9~~~~~~|
B|---------------------7\6-9\8--------------|
G|--11\10-12---8\6-8\7----------------------|
D|------------------------------------------|
A|------------------------------------------|
E|------------------------------------------|



Normal Strings (are included in intro) 
(e)----------------------------------------------------------------------|
(B)----------------------------------------------------------------------|
 G|----------------------------------------------------------------------|
 D|----------------------------------------------------------------------|
 A|----6--6-3/4-------6---7--6-3/4-----6---7-6-3/4--------------7---7-3/4|
 E|--4--------------4---4------------4---4------------5-4-0-4-3----------|
Since I am not a violin player i dont know about if it's Bass or not XD
            
Submit corrections

comments powered by Disqus
↑ Back to top | Peter Fox Tabs for Das Zweite Gesicht. Lyrics for acoustic guitar and electric guitar. Tablatures and chords are parodies/interpretations of the original songs. You may use it for private study, scholarship, research or language learning purposes only