>
 >
Haus Am See

Haus Am See Chords

Peter Fox - Haus Am See chords, tabs, tablatures, lyrics

Guitar lessons | Add/correct | Request | Top 50 tabs Artists:  A B C D E F G H I J K L M N O P Q R S T U V W X Y Z 0-9

Haus Am See Chords – Peter Fox

CD, Sheet music, Poster

Do you like Haus Am See? Share with your friends now
ChordsChords v2TabsUkulele
-------------------------------------------------------------------------------
                           Haus Am See  -  Peter Fox 
-------------------------------------------------------------------------------

Tuning: E- Standard

                              * done by request *

//////////////////////////////////////////////
//                                          //
//  RATING THIS TAB TAKES ABOUT 5 SECONDS   //
//  AND HELPS ME TO IMPROVE MY WORK         //
//                                          //
//////////////////////////////////////////////





Basic Chords:                            Bass Line
e|-(3)-(1)-(3)----1--|                   |-------------------------|
B|--4---2---4---2-2--|                   |-------------------------|
G|--3---3---3---3-3--|                   |-------------------------|
D|------3-------3-3--|                   |-------------------------|
A|-------------------|                   |--6---8-----8-6---8------|
E|-------------------|                   |--------6-----------6-6--|
   Dsharp Major  / Asharp Minor 


Standard Guitar + Bass Line:
e|----------------------------------| continued through the whole song except:
B|-----(8)-------------(8)------6---|
G|------8-------6-------8-------6---|
D|------8-------8-------8-------8---| 
A|--6-----8-----8-8-6-----8-----8---|
E|----------6---------------6---6---|
        






                        
[CHORUS]

How to play the chords:
e|-6--------6--------6---------------------------------6-----------8-----------|
B|-6--------6--------6---------------------------------8-----------8-----------|
G|-6--------6--------6-------------------6----10----------8-----------9--------|  
D|-8--------6--------10--------------------------------8-----------10----------|
A|-8--------8--------8---------------------------------6-----------10----------|
E|-6--------6--------6---------------------------------6-----------8-----------| 
   Bbm      a#7m     Bb?m                C#   F           Ebm         C M
                    (if it is too hard
                    play A#Minor instead)



Notes for the timing:

Note[1]: the a#minor variations because of the loud violin!

Note[2]: "C#" and "F" are single notes! 

Note[3]: "a#m", "a#7m", "a#?m", "D#M" and "C M" are chords!



[finally: Chorus]



       Bbm                               Bb?m a#7m Bb?m
Und am Ende der Straße steht ein Haus am See


       Bbm                                    a#7m Bb?m
       Orangenbaumblätter liegen auf dem Weg


       Bbm                               Bb?m a#7m Bb?m
       Ich hab 20 Kinder, meine Frau ist schön............mhhh


       Bbm                                              C#   F
       alle kommen vorbei, ich brauch nie raus zu gehn


       Ebm
                         ... ein Traum,der See


       C M
                         ... das Haus am See


   [TEXT]

[VERSE 1]
(yeah)Hier bin ich geboren und laufe durch die Straßen
Kenn die Gesichter, jedes Haus und jeden Laden
Ich muss ma weg, kenn' jede Taube hier beim Namen
Tauben raus, ich warte auf 'ne schicke Frau mit schnellem Wagen
Die Sonne blendet, alles fliegt vorbei
Und die Welt hinter mir wird langsam klein
Doch die Welt vor mir is für mich gemacht... hhmm... ich weiß sie wartet und ich hol sie ab
Ich hab den Tag auf meiner Seite, ich hab Rückenwind
Ein Frauenchor am Straßenrand der für mich singt... yeah
Ich lehne mich zurück und kuck ins tiefe Blau, schließ die Augen und lauf einfach gradeaus

[CHORUS]
Und am Ende der Straße steht ein Haus am See
Orangenbaumblätter liegen auf dem Weg
Ich hab zwanzig Kinder, meine Frau ist schön
Mmm alle kommen vorbei, ich brauch nie raus zu gehn
... Ein Traum, der See
... Das Haus

[VERSE 2]
Ich suche neues Land mit unbekannten Straßen
Fremde Gesichter und keiner kennt meinen Namen
Alles gewinnen beim Spiel mit gezinkten Karten
Alles verlieren, Gott hat einen harten linken Haken
Ich grabe Schätze aus in Schnee und Sand
....und Frauen rauben mir jeden Verstand
Doch irgendwann werd ich vom Glück verfolgt mmmhh
und komm zurück mit meinen Taschen voll Gold
Ich lad die alten Vögel und Verwandten ein
und alle fang'n vor Freude an zu weinen
Wir grillen, die Mamas kochen und wir saufen Schnaps
Und feiern eine Woche jede Nacht

[CHORUS x2]
Und der Mond scheint hell auf mein Haus am See
Orangenbaumblätter liegen auf dem Weg
Ich hab 20 Kinder, meine Frau ist schön
Mmm alle komm'n vorbei, ich brauch nie raus zu gehn
... Ein Traum, der See
... Das Haus
Und am Ende der Straße steht ein Haus am See
Orangenbaumblätter liegen auf dem Weg
Ich hab 20 Kinder, meine Frau ist schön
Alle komm'n vorbei, ich brauch nie raus zu gehn
uhhh.... yeah,yeah,yeah,yeah

[OUTRO]
Hier bin ich gebor'n, hier werd' ich begraben
Hab taube Ohren, n' weißen Bart und sitz im Garten
Meine 100 Enkel spielen Cricket auf'm Rasen
Wenn ich so daran denke, kann ich's eigentlich kaum erwarten



[5 STERNE WER PETER FOX MAG ;) ]





Comments


Popular Peter Fox tabs & chords
Das Zweite Gesicht Chords
Haus Am See 1 Chords
Alles Neu Tabs
Das Zweite Gesicht Tabs
Fieber Tabs
Haus Am See Tabs
Lok Auf 2 Beinen Tabs
Das Zweite Gesicht Ukulele
Haus Am See Ukulele
Kopf Ukulele


Song lyrics



↑ Back to top | Tablatures and chords are parodies/interpretations of the original songs. You may use it for private study, scholarship, research or language learning purposes only
© 2014 AZChords.com Contact us | Privacy policy | DMCA | Add/correct tabs | Request tabs | Top 50 tabs