» » »

I Am The Rain Chords (ver.2)

Artists:  A B C D E F G H I J K L M N O P Q R S T U V W X Y Z # 

I Am The Rain Chords (ver.2)

Pete Doherty
Rating:
4/5 (4 votes)

Hard to play? Try these video lessons and learn fast.
                Verse:

--1-x-1-x-1-x-1--------------------------------------------------------------|
--3-3-3-3-3-3-0-2------------------------------------------------------------|
--2-3-2-3-2-3-0-2------------------------------------------------------------|
--0-2-0-2-0-2-0-2------------------------------------------------------------|
----3---3---3-2-0------------------------------------------------------------|
--------------3--------------------------------------------------------------|
Dm Cm9 Dm Cm9 Dm Cm9 G7 A

Note: The Cm9 changes to a Cadd9 between the first and second verse

Chorus:

--1-0-1-0-1-1-3-------------------------------------------------------------|
--3-2-3-2-3-1-3-------------------------------------------------------------|
--2-2-2-2-3-2-0-------------------------------------------------------------|
--0-2-0-2-3-3-2-------------------------------------------------------------|
----0---0-1-3-3-------------------------------------------------------------|
------------1---------------------------------------------------------------|
Dm A Dm A Bb F Cadd9

Outtro is same as Verse/Intro, double speed.

Done.
            
Hard to play? Try these video lessons and learn fast. | Correct




comments powered by Disqus
↑ Back to top | Tablatures and chords are parodies/interpretations of the original songs. You may use it for private study, scholarship, research or language learning purposes only