» » »

Pete Doherty, 1939 Returning Tabs (ver.1)

Artists:  A B C D E F G H I J K L M N O P Q R S T U V W X Y Z # 

1939 Returning Tabs (ver.1)

Pete Doherty Tabs
 Rating:
4.5/5 (8 votes)
1939 Returning lessons Tabs too difficult? Try these video lessons and learn fast
                Peter Doherty
1939 returning

Intro


         A#m
--x-x----6-6----9-8-6-5-x--6-x-------------------------|
--x-x------6----9-8-6-5-x--6-x--7----77---------6-6----|
--x-x------6----------------------------------8---8----|
--x-x--0---8---------------------8-----8--7-7----------|
--x-x--0---8-------------------------------------------|
--x-x--0---6-------------------------------------------|

For The end of the verse

...his night
------------4-----5------|
------------4-----5------|
------------5-----6------|
---------6-----7---------|
---------6-----7---------|
---------4-----5---------|

Verse:

A#m              C7
Captured clandestine
Fm               Cm
Crawled into the lights
C#         G#              F#
He knew he was in for a shoeing
Ebm                    Ab    A
Just wasn't to be his night

A#m                      C7
Dragged out of the frozen Rhine
Fm                            Cm
For the Motherland and the Third Reich
C#         G#                F#
A toeing's as good as a shoeing
Ebm                       Ab   A
When it's not to be your night


Chorus:

A#m
Tread carefully, so carefully
A
Upon the drifting ice
Dmaj7
Caught behind enemy lines
E    F
In 1939

A#m
For Germany
A
he sacrificed his life
Dmaj7
Caught behind enemy lines
E      F    Am
There in 1939


  A#m
--6-x---9-8-6-5-x--6------------------------------|
--6-x---9-8-6-5-x--6---7-------7-----6--------6---|
--6-x----------------------------------------8-8--|
--8-x-------------------8---8-8---7-7----7-7------|
--8-x---------------------------------------------|
--6-x---------------------------------------------|

Verse:

A#m                   C7
Kids knee-deep in rubble
Fm                     Cm
London urchins grey with dust
C#          G#                F#
Packed off ours in evacuations
Ebm
To farmers' wives

Green and pleasant lives
     Ab              A
Far from the doodlebugs
A#m                         C7
Nanna Doll she still remembers
Fm                     Cm
Leaving town in worn-out shoes
C#              G#            F#
Now she's back out west in sheltered accommodations
Ebm                            Ab         A
Homes for the old where pills aren't the only blues

Chorus:

A#m
Tread carefully, so carefully
A
Upon the drifting ice
Dmaj7
Staring blank into the TV guide
E     F
In 2009

A#m                   A
How it's hurting me, I've only seen her twice
Dmaj7
Since you went west for the second time
E       F
Since 1939


Outro

-6-6----------------------------------------------------------------------|
-6---6-----9---------7----7---7-------6----6-6/9-----9--7---7--4--5--6----|
-6-----8-------8-6--------------8--9---------6-8--------6-----------------|
-8-----6--------------8-8---8------8---------------------------6--7--8----|
-8------------------------------------------------------------------------|
-6------------------------------------------------------------------------|

End
            
Submit corrections

comments powered by Disqus
↑ Back to top | Pete Doherty Tabs for 1939 Returning. Lyrics for acoustic guitar and electric guitar. Tablatures and chords are parodies/interpretations of the original songs. You may use it for private study, scholarship, research or language learning purposes only