» » »

Pendulum, Violet Hill Tabs (ver.1)

Artists:  A B C D E F G H I J K L M N O P Q R S T U V W X Y Z # 

Violet Hill Tabs (ver.1)

Pendulum Tabs
Rating:
0/5 (0 votes)
Violet Hill lessons Tabs too difficult? Try these video lessons and learn fast
                An amazing Coldplay cover recorded in Radio 1's Live Lounge!

Guitar 1 (Clean)
Intro
(0.00 - 1.00)
Play with delay effect and plenty of reverb
e--------------------------------------------------------------------------|
B-5- /10-/12-\5-/10-/12-/15-\12-15p12h15-/17-\5-8-7-5-/10-/12-/15\12/15\12~|
G--------------------------------------------------------------------------|
D--------------------------------------------------------------------------|
A--------------------------------------------------------------------------|
E--------------------------------------------------------------------------|

Verse 1
(1.00 - 1.43)
No Guitar

Guitar 1 (Distorted)
Chorus 1
(1.43 - 2.05)
e-------------------------------------------------|
B-------------------------------------------------|
G-------------------------------------------------|
D--2-xx-2-xx-2-0-0-4-0--2-xx-2-xx-2-0-0-4-0-------|
A--2-xx-2-xx-2----------2-xx-2-xx-2---------------|
E--0-xx-0-xx-0----------0-xx-0-xx-0---------------|

e-------------------------------------------------|
B-------------------------------------------------|
G---5-xx-5-xx-5-xx-5-4----------------------------|
D---5-xx-5-xx-5-xx-5-4-7-xx-7-xx-7--6----6--5-----|
A---3-xx-3-xx-3-xx-3-2-5-xx-5-xx-5--4----6--5-----|
E----------------------5-xx-5-xx-5--4----4--3-----|

e-------------------------------------------------|
B-------------------------------------------------|
G-------------------------------------------------|
D-2-xx-2-xx-2-0-0-4-0--2-xx-2-xx-2-0-0-4-0--------|
A-2-xx-2-xx-2----------2-xx-2-xx-2----------------|
E-0-xx-0-xx-0----------0-xx-0-xx-0----------------|

e---------------------------------------------------|
B---------------------------------------------------|
G---5-xx-5-xx-5-xx-5--4-----------------------------|
D---5-xx-5-xx-5-xx-5--4--7-xxx--5-x-4-xx-8-xx-8-9-8-|
A---3-xx-3-xx-3-xx-3--2--5-xxx----------------------|
E------------------------5-xxx----------------------|

Verse 2
(2.05 - 2.27)
(Play twice)                      
e-------------------------------------------------|
B-------------------------------------------------|
G---9-xx-9-7---9-xx-9-7---9-xx-9-7---9-xx-9-7-----|
D---9-xx-9-7---9-xx-9-7---9-xx-9-7---9-xx-9-7-----|
A---7-xx-7-5---7-xx-7-5---7-xx-7-5---7-xx-7-5-----|          \
E-------------------------------------------------|          |
                                                             |(x2)
                     Little solo part heard in background    |
e---------------------------------------------------|        /
B---------------------------------------------------|
G---5-xx-5-4/5---5-xx-5/4---7-xx-7-5----------------|
D---5-xx-5-2/5---5-xx-5/4---7-xx-7-5--------4h5p4---|
A---3-xx-3-2/3---3-xx-3/2---5-xx-5-3------5-------5-|
E------------------------------------0-5-7----------|

Pre-Chorus
(2.27 - 2.46)
e----------------------------------------------------------------------|
B----------------------------------------------------------------------|
G---5-5-5-5-5-5-5-5-7-7-7-7-7-7-7-7-----------------7-7-7-7-7-7-7-7----|
D---5-5-5-5-5-5-5-5-7-7-7-7-7-7-7-7-7-7-7-7-7-7-7-7-7-7-7-7-7-7-7-7----|
A---3-3-3-3-3-3-3-3-5-5-5-5-5-5-5-5-7-7-7-7-7-7-7-7-5-5-5-5-5-5-5-5----|
E-----------------------------------5-5-5-5-5-5-5-5--------------------|

e-------------------------------------------|
B-------------------------------------------|
G----5--7--7--------------------------------|
D----5--7--7-2--2--2--2--2-2-2-2-2-2-2-2----|
A----3--5--5-2--2--2--2--2-2-2-2-2-2-2-2----|
E------------0--0--0--0--0-0-0-0-0-0-0-0----|

Chorus
(2.46 - 3.08)
e-------------------------------------------------|
B-------------------------------------------------|
G-------------------------------------------------|
D--2-xx-2-xx-2-0-0-4-0--2-xx-2-xx-2-0-0-4-0-------|
A--2-xx-2-xx-2----------2-xx-2-xx-2---------------|
E--0-xx-0-xx-0----------0-xx-0-xx-0---------------|

e-------------------------------------------------|
B-------------------------------------------------|
G---5-xx-5-xx-5-xx-5-4----------------------------|
D---5-xx-5-xx-5-xx-5-4-7-xx-7-xx-7--6----6--5-----|
A---3-xx-3-xx-3-xx-3-2-5-xx-5-xx-5--4----6--5-----|
E----------------------5-xx-5-xx-5--4----4--3-----|

e-------------------------------------------------|
B-------------------------------------------------|
G-------------------------------------------------|
D--2-xx-2-xx-2-0-0-4-0--2-xx-2-xx-2-0-0-4-0-------|
A--2-xx-2-xx-2----------2-xx-2-xx-2---------------|
E--0-xx-0-xx-0----------0-xx-0-xx-0---------------|

e-------------------------------------------------|
B-------------------------------------------------|
G---5-xx-5-xx-5-xx-5-4----------------------------|
D---5-xx-5-xx-5-xx-5-4-7-xx-7-xx-7-6-5---5-4-2---|
A---3-xx-3-xx-3-xx-3-2-5-xx-5-xx-5-4-5---5-4-2---|
E----------------------5-xx-5-xx-5-4-3---3-2-0---|

Verse 3
(3.08 - 3.30)
(Play twice)
e-------------------------------------------------|
B-------------------------------------------------|
G---9-xx-9-7---9-xx-9-7---9-xx-9-7---9-xx-9-7-----|
D---9-xx-9-7---9-xx-9-7---9-xx-9-7---9-xx-9-7-----|
A---7-xx-7-5---7-xx-7-5---7-xx-7-5---7-xx-7-5-----|          \
E-------------------------------------------------|          |
                                                             |(x2)
e---------------------------------------------------|        |
B---------------------------------------------------|        /
G---5-xx-5-4/5---5-xx-5/4---7-xx-7-5/7---7-xx-7-5---|
D---5-xx-5-2/5---5-xx-5/4---7-xx-7-5/7---7-xx-7-5---|
A---3-xx-3-2/3---3-xx-3/2---5-xx-5-3/5---5-xx-5-3---|
E---------------------------------------------------|

Pre-Chorus
(3.30 - 3.50)
e----------------------------------------------------------------------|
B----------------------------------------------------------------------|
G---5-5-5-5-5-5-5-5-7-7-7-7-7-7-7-7-----------------7-7-7-7-7-7-7-7----|
D---5-5-5-5-5-5-5-5-7-7-7-7-7-7-7-7-7-7-7-7-7-7-7-7-7-7-7-7-7-7-7-7----|
A---3-3-3-3-3-3-3-3-5-5-5-5-5-5-5-5-7-7-7-7-7-7-7-7-5-5-5-5-5-5-5-5----|
E-----------------------------------5-5-5-5-5-5-5-5--------------------|

e-------------------------------------------|
B-------------------------------------------|
G----5--7--7--------------------------------|
D----5--7--7-2--2--2--2--2-2-2-2-2-2-2-2----|
A----3--5--5-2--2--2--2--2-2-2-2-2-2-2-2----|
E------------0--0--0--0--0-0-0-0-0-0-0-0----|

Chorus
(3.50 - 4.12)
e-------------------------------------------------|
B-------------------------------------------------|
G-------------------------------------------------|
D--2-xx-2-xx-2-0-0-4-0--2-xx-2-xx-2-0-0-4-0-------|
A--2-xx-2-xx-2----------2-xx-2-xx-2---------------|
E--0-xx-0-xx-0----------0-xx-0-xx-0---------------|

e-------------------------------------------------|
B-------------------------------------------------|
G---5-xx-5-xx-5-xx-5-4----------------------------|
D---5-xx-5-xx-5-xx-5-4-7-xx-7-xx-7--6----6--5-----|
A---3-xx-3-xx-3-xx-3-2-5-xx-5-xx-5--4----6--5-----|
E----------------------5-xx-5-xx-5--4----4--3-----|

e-------------------------------------------------|
B-------------------------------------------------|
G-------------------------------------------------|
D--2-xx-2-xx-2-0-0-4-0--2-xx-2-xx-2-0-0-4-0-------|
A--2-xx-2-xx-2----------2-xx-2-xx-2---------------|
E--0-xx-0-xx-0----------0-xx-0-xx-0---------------|

e-------------------------------------------------|
B-------------------------------------------------|
G---5-xx-5-xx-5-xx-5-4--------------7-7--7-7------|
D---5-xx-5-xx-5-xx-5-4-7-xx-7-xx-7--7-7--7-7------|
A---3-xx-3-xx-3-xx-3-2-5-xx-5-xx-5--5-5--5-5------|
E----------------------5-xx-5-xx-5----------------|

Ending
(4.12 - 5.03)
No Guitar just Vocals and Synth


Thanks for checking out the tab!
If you have any corrections or comments then feel free to let me know!
Enjoy!
            

comments powered by Disqus
↑ Back to top | Pendulum Tabs for Violet Hill. Lyrics for acoustic guitar and electric guitar. Tablatures and chords are parodies/interpretations of the original songs. You may use it for private study, scholarship, research or language learning purposes only