» » »

Pendulum, Showdown Bass tabs (ver.1)

Artists:  A B C D E F G H I J K L M N O P Q R S T U V W X Y Z # 

Showdown Bass tabs (ver.1)

Pendulum Tabs
Rating:
5/5 (7 votes)
Showdown lessons Tabs too difficult? Try these video lessons and learn fast
                Another sweet pendulum song. took a while to tabs this one out. Mainly
Because of its rythem on the main riff but i tryed:D. any bumb notes
please comment ;) A.J 

Normal tuning 

Intro (optional 0:16)
|---------------------------------------------|
|---------------------------------------------|
|-5h77777777-5h77777777-5h77777777-5h77777777-| xlots
|---------------------------------------------|

Main Riff (0:39)
|-----------------------------------|------------------------------|
|-2-------------0-1-2--5h7--7-5-----|-2-------------0--------------|
|---------0-1-2-----------------7-5-|---------0-1-2---2-0----------|
|--0--3-4---------------------------|--0--3-4--------------3-5-3-0-|

|------------------------------------|------------------------------|
|-2-------------0--1-2--5h7--7-5-----|-2--------------0-------------| both 
|---------0--1-2-----------------7-5-|---------0--1-2---2-0---------| riff's
|--0--3-4----------------------------|--0--3-4--------------3-5-3-0-| x2

Verse
|--------------------------------------------|
|--------------------------------------------|
|--------------------------------------------| x8
|-33333333-2222222-11111111-0000000000000000-|

2nd verse
|------------------------------------------|
|------------------------------------------|
|------------------------0-----------------|  
|-0-2222222222222222-0h2---222222222222222-|

|------------------------------------------|
|------------------------------------------|
|------------------00000000-22222222-------| repeat both riffs lots
|-2222222222222222--------------------0--0-| with some variations

Bridge
|---------------------------|--------------------|
|-2----------0-1-2--7-5-----|-2----------0-------|
|---------0-2-----------7-5-|---------0-2--2-0---| x2
|--0--3-4-------------------|--0--3-4----------3-|

Main Riff (0:39)
|-----------------------------------|------------------------------|
|-2-------------0-1-2--5h7--7-5-----|-2-------------0--------------|
|---------0-1-2-----------------7-5-|---------0-1-2---2-0----------|
|--0--3-4---------------------------|--0--3-4--------------3-5-3-0-|

|------------------------------------|------------------------------|
|-2-------------0--1-2--5h7--7-5-----|-2--------------0-------------| both 
|---------0--1-2-----------------7-5-|---------0--1-2---2-0---------| riff's
|--0--3-4----------------------------|--0--3-4--------------3-5-3-0-| x2

interlude
|---------------------------|
|---------------------------|
|----7-----7-----7----7-----| xlots
|-----0-----0-----0----0----|

verse/outro
|-------------------------------------|
|-------------------------------------|
|-------------------------------------| xlots 
|-33333333-22222222-11111111-00000000-|

And thats it. Enjoy :D A.J
            
Submit corrections

comments powered by Disqus
↑ Back to top | Pendulum Bass for Showdown. Lyrics for acoustic guitar and electric guitar. Tablatures and chords are parodies/interpretations of the original songs. You may use it for private study, scholarship, research or language learning purposes only