» » »

9000 Miles Tabs (ver.1)

Artists:  A B C D E F G H I J K L M N O P Q R S T U V W X Y Z # 

9000 Miles Tabs (ver.1)

Pendulum
Rating:
0/5 (0 votes)

Hard to play? Try these video lessons and learn fast.
                (Live)
--------------------------------------------------------------------
                     9000 MILES [LIVE] - Pendulum
---------------------------------------------------------------------

ROUGH INTRO – SYNTHS: 
e|-----11\10----3------|---11\10----1-----------|----11\10----3---|
B|---------------------|------------------------|-----------------|
G|---------------------|------------------------|-----------------|x2
D|---------------------|------------------------|-----------------|
A|---------------------|------------------------|-----------------|
E|---------------------|------------------------|-----------------|


e|----11\10----15------|---6/10\6----3----------|----11\10----3---|
B|---------------------|------------------------|-----------------|
G|---------------------|------------------------|-----------------|
D|---------------------|------------------------|-----------------|
A|---------------------|------------------------|-----------------|
E|---------------------|------------------------|-----------------|


e|----19\17----14/15---|---16\14----8-----------|-----11\10---3---|
B|---------------------|------------------------|-----------------|
G|---------------------|------------------------|-----------------|
D|---------------------|------------------------|-----------------|
A|---------------------|------------------------|-----------------|
E|---------------------|------------------------|-----------------|

Well it’s nine thousand miles, back to you, now.
And I still feel like home is in your arms.

MAIN RHYTHM
e|---------------------|------------------------|
B|----6/8-8------------|--8-8-8---11------------|
G|---------10--10--10--|------------------------|  x approx 17
D|---------------------|------------------------|
A|---------------------|------------------------|
E|---------------------|------------------------|


e|---------------------|------------------------|------------------|
B|----6/8-8------------|-8-8---11---10---8---6--|------------------|
G|---------10--10--10--|------------------------|------------------|
D|---------------------|------------------------|------------------|
A|---------------------|------------------------|------------------|
E|---------------------|------------------------|------------------|


SOLO STYLE THING (synths)
e|----------------------|-----------------------|------------------|
B|--8--11(ring)-13--10--|--6--6--3---8---6-8----|------------------|
G|----------------------|-----------------------|-----5--7--8------|


e|----------------------|-----------------------|------------------|
B|----------------------|-----------------------|------------------|
G|--10--7----3-3-0-5----|-----------------------|------------------|
            
Hard to play? Try these video lessons and learn fast. | Correct




comments powered by Disqus
↑ Back to top | Tablatures and chords are parodies/interpretations of the original songs. You may use it for private study, scholarship, research or language learning purposes only