» » »

Pearl Jam, The End Tabs (ver.1)

Artists:  A B C D E F G H I J K L M N O P Q R S T U V W X Y Z # 

The End Tabs (ver.1)

Pearl Jam Tabs
Rating:
0/5 (0 votes)
Hard to play? Try these video lessons and learn fast.
                ----------------------------------------------------------------------------
----------------------------------------------------------------------------


Guitar cover of The End from Pearl Jams new album Backspacer. Beautiful song. To
match the album version tune down half a step. D#G#C#F#A#D#


Intro

e|-------------------------------------------------------------------------|
B|-------------------------------------------------------------------------|
G|-0---0---0---0---0---0---0---0-------------------------------------------|
D|---0---0---0---0---0---0---0---0-----------------------------------------|
A|-------------------------------------------------------------------------|
E|-3---3---3---3---3---3---3---3-------------------------------------------|


Riff #1 x 2

e|-------------------------------------------------------------------------|
B|-0---0---3---3-----------------------------------------------------------|
G|-----------------2---2---0---0---0---0---0---0---0---0---0---0-----------|
D|---0---0---0---0---0---0---0---0---2---2---2---2---0---0---0---0---------|
A|-------------------------------------------------------------------------|
E|-3---3---3---3---3---3---3---3---3---3---3---3---3---3---3---3-----------|


e|-------------------------------------------------------------------------|
B|-0---0---3---3-----------------------------------------------------------|
G|-----------------2---2---0---0---0---0---0---0---0---0---0---0---0---0---|
D|---0---0---0---0---0---0---0---0---2---2---2---2---0---0---0---0---2---2-|
A|-------------------------------------------------------------------------|
E|-3---3---3---3---3---3---3---3---3---3---3---3---3---3---3---3---3---3---|


e|-------------------------------------------------------------------------|
B|-------------------------------------------------------------------------|
G|0---0---0---0---0---0---0---0---0---0------------------------------------|
D|--2---2---0---0---0---0---0---0---0---0----------------------------------|
A|-------------------------------------------------------------------------|
E|3---3---3---3---3---3---3---3---3---3------------------------------------|


Riff #2 x 2

e|-------------------------------------------------------------------------|
B|-0---0---1---1---3---3--3---3---5---5---5-3-2---2---2---2---5---5---5-7--|
G|---0---0---0---0---0--0---0---0---0---0-------0---0---0---0---0---0------|
D|-------------------------------------------------------------------------|
A|-----------------2---2--2---2---3---3---3-2-0---0---0---0---3---3---3-5--|
E|-3---3---3---3-----------------------------------------------------------|


e|--------------------------------------------------------------------------|
B|-8---8---8---10-7---7---7---8-5---5---5---5---5---5---5---5---5---5---5---|
G|---0---0---0------0---0---0-----0---0---0---0---0---0---0---0---0---0---0-|
D|--------------------------------------------------------------------------|
A|-7---7---7------5---5---5-----3---3---3---0---3---3---3---0---3---3---3---|
E|--------------------------------------------------------------------------|


e|--------------------------------------------------------------------------|
B|-5---5---5---5-3----------------------------------------------------------|
G|---0---0---0--------------------------------------------------------------|
D|--------------------------------------------------------------------------|
A|-0---3---3---3-2----------------------------------------------------------|
E|--------------------------------------------------------------------------|


End Riff #2 with this:

e|--------------------------------------------------------------------------|
B|-0------------------------------------------------------------------------|
G|---0---0---0---0---0---0---0---0------------------------------------------|
D|-----0---0---0---0---0---0---0---0----------------------------------------|
A|--------------------------------------------------------------------------|
E|-3-3---3---3---3---3---3---3---3------------------------------------------|


Riff #1 x 1


Riff #2 x 2


On the last play of the chorus end on this.

e|--------------------------------------------------------------------------|
B|-5---5---5---5---5---5---5---5---5----------------------------------------|
G|---0---0---0---0---0---0---0---0------------------------------------------|
D|--------------------------------------------------------------------------|
A|-3---3---3---0---3---3---3---0---3----------------------------------------|
E|--------------------------------------------------------------------------|
            

comments powered by Disqus
↑ Back to top | Pearl Jam Tabs for The End. Lyrics for acoustic guitar and electric guitar. Tablatures and chords are parodies/interpretations of the original songs. You may use it for private study, scholarship, research or language learning purposes only