» » »

Soon Forget Tabs (ver.2)

Artists:  A B C D E F G H I J K L M N O P Q R S T U V W X Y Z # 

Soon Forget Tabs (ver.2)

Pearl Jam
Rating:
0/5 (0 votes)

Hard to play? Try these video lessons and learn fast.
                Even if you don't have a Uke, use these chords to get a decent sound out of your guitar. improvise with these chords and it sounds pretty similar to the Ukelele album version.

---|----|-----|-----|----|-----|----------------------------------------------
-7-|-9--|-11--|-11--|-9--|-12--|----------------------------------------------
-8-|-9--|-11--|-12--|-8--|-12--|----------------------------------------------
-9-|-9--|-14--|-13--|10--|-14--|----------------------------------------------
---|----|-----|-----|----|-----|----------------------------------------------
---|----|-----|-----|----|-----|----------------------------------------------
                                                                              

-------------------------7-7-------7------------------------------------------
-7-------------7-------7-7-7-----7-7-7-7--------------------------------------
-8-8-8-8-8-9-8-8-8-8-8-9-8-8-8-8-9-8-9-8--------------------------------------
-9-9-9-9-9-9-9-9-9-9-9-9-9-0-9-9-9-0-9-9--------------------------------------
 Finish with this
            
Hard to play? Try these video lessons and learn fast. | Correct




comments powered by Disqus
↑ Back to top | Tablatures and chords are parodies/interpretations of the original songs. You may use it for private study, scholarship, research or language learning purposes only