» » »

Pearl Jam, Smile Tabs (ver.1)

Artists:  A B C D E F G H I J K L M N O P Q R S T U V W X Y Z # 

Smile Tabs (ver.1)

Pearl Jam Tabs
 Rating:
4/5 (4 votes)
Smile lessons Tabs too difficult? Try these video lessons and learn fast
                Intro :
-|---------------10\----------------10\---------------------------------------
-|---------10-12--------------10-12-------------------------------------------
-|-----7------------------7/--------------------------------------------------
-|-7-9----------------7-9-----------------------------------------------------
-|----------------------------------------------------------------------------
-|----------------------------------------------------------------------------
                                                                              
Intro/verse:
-|----------------------------------------------------------------------------
-|----------------------------------------------------------------------------
-|----------------------------------------------------------------------------
-|2-2-22--7-7-77--9-9-99--7-7-77----------------------------------------------
-|2-2-22--7-7-77--9-9-99--7-7-77----------------------------------------------
-|0-0-00--5-5-55--7-7-77--5-5-55----------------------------------------------
                                                                              
Chorus:
-|-3-3-33--3-3-33--3-3-33-3-3333333-------------------------------------------
-|-3-3-33--3-3-33--3-3-33-3-3333333-------------------------------------------
-|-0-0-00--0-0-00--0-0-00-0-0000000-------------------------------------------
-|-0-0-00--2-2-22--0-0-00-2-2222222-------------------------------------------
-|-2-2-22--3-3-33--2-2-22-3-3333333-------------------------------------------
-|-3-3-33---------------------------------------------------------------------
                                                                              
Solo:
-|----------------------------------------------------------------------------
-|----------------------------------------------------------------------------
-|-------9-7-------9-------9-7-------7--------9-7-------9-------9-7-----7\----
-|-7h9p7-----7h9p7---7h9p7-----7h9r7----7h9p7-----7h9p7---7h9p7-----7h9-------
-|----------------------------------------------------------------------------
-|----------------------------------------------------------------------------
                                                                              

-|-12-10\----12-10------------12-10\--12-10-----------------------------------
-|----------------------------------------------------------------------------
-|------------------------7\---------------------7\---------------------------
-|--------------------7-9--------------------7-9------------------------------
-|----------------------------------------------------------------------------
-|----------------------------------------------------------------------------
                                                                              
Outro:
-|----------------------------------------------------------------------------
-|----------------------------------------------------------------------------
-|----------------------------------------------------------------------------
-|----------------------------------------------------------------------------
-|-------7-5-------7-------7-5-------5----------------------------------------
-|-5h7p5-----5h7p5---5h7p5-----5h7p5------------------------------------------
            
Submit corrections

comments powered by Disqus
↑ Back to top | Pearl Jam Tabs for Smile. Lyrics for acoustic guitar and electric guitar. Tablatures and chords are parodies/interpretations of the original songs. You may use it for private study, scholarship, research or language learning purposes only