» » »

Rats Bass tabs (ver.1)

Artists:  A B C D E F G H I J K L M N O P Q R S T U V W X Y Z # 

Rats Bass tabs (ver.1)

Pearl Jam
Rating:
0/5 (0 votes)

Hard to play? Try these video lessons and learn fast.
                "(1)

Intro/Verse:
 
G-----------------------------|
D---------------5-5-5---------|
A----7-----------------7p5----|
E-------0-0h5h7-----------7p5-|
     q  q  s s  e e e   s  s

Fill (intro + prechorus):

G-----------------7-|
D------------5/9----|
A----7--------------|
E--------0-R--------|
     q   q   e   e

Watch your timing between the E and the G

Chorus:
 
   A    B     C
G------------------|          
D------------------|
A-0-0--2-2-3333333-|
E------------------|
all e

Under solo:

       G                   G    E
G---------------------------------|          
D---55555555------------5555555---|
A--------------7p5--------------7-|
E-------------------7p5-----------|
     e          s    s     e    
Outro: 

     A#        C       G
G---------------------------|
D---------------------------|
A-11111111-33333333---------|
E-------------------3333333-|
all e

varations around the G towards the end.. 

Corrections, comments, questions, and pplz selling a 5-string bass for under a £10.. :)
 
              
    
Notes:  w = Whole  h = Half  q = Quarter
        e = 8th    s = 16th  t = 32nd  x = 64th
    
        
H = HAMMER ON   R = Rest
P = PULL OFF    
                  
"            
Hard to play? Try these video lessons and learn fast. | Correct




comments powered by Disqus
↑ Back to top | Tablatures and chords are parodies/interpretations of the original songs. You may use it for private study, scholarship, research or language learning purposes only