» » »

Pearl Jam, Push Me Pull Me Bass tabs (ver.2)

Artists:  A B C D E F G H I J K L M N O P Q R S T U V W X Y Z # 

Push Me Pull Me Bass tabs (ver.2)

Pearl Jam Tabs
 Rating:
4/5 (4 votes)
Push Me Pull Me  lessons Tabs too difficult? Try these video lessons and learn fast
1
                (2)
Standard Tuning (E,A,D,G) Down Half A Step

First Verse:

G|-------------|-------------|-------------|-------------|-------|
D|*------------|-------------|-------------|-------------|------*|
A|*--------5-7-|---------5-7-|---------5-7-|---------5-7-|5-----*|
E|-0-5-7-0-----|-0-5-7-0-----|-0-5-7-0-----|-0-5-7-0-----|-------|

G|-------------|-------------|-------------|-------------|-------|
D|*------------|-------------|-------------|-------------|------*|
A|*--------5-7-|---------5-7-|---------5-7-|---------5-7-|5-----*|
E|-0-5-7-0-----|-0-5-7-0-----|-0-5-7-0-----|-0-5-7-0-----|-------|

G|-------------|-------------|-------------|-------------|-------|
D|*------------|-------------|-------------|-------------|------*|
A|*--------5-7-|---------5-7-|---------5-7-|---------5-7-|5-----*|
E|-0-5-7-0-----|-0-5-7-0-----|-0-5-7-0-----|-0-5-7-0-----|-------|

G|-------------|-------------|-------------|-------------|-------|
D|*------------|-------------|-------------|-------------|------*|
A|*--------5-7-|---------5-7-|---------5-7-|---------5-7-|5-----*|
E|-0-5-7-0-----|-0-5-7-0-----|-0-5-7-0-----|-0-5-7-0-----|-------|

Chorus:

G|-----------------|-----------------|-----------------|-----------------|
D|*----------------|-----------------|-----------------|----------------*|
A|*----------------|-5-5-5-5-5-5-5-5-|-----------------|----------------*|
E|-2-2-2-2-2-2-2-2-|-----------------|-5-5-5-5-5-5-5-5-|-5-5-5-5-5-5-5-5-|

G|-----------------|-----------------|-----------------|-----------------|
D|*----------------|-----------------|-----------------|----------------*|
A|*----------------|-5-5-5-5-5-5-5-5-|-----------------|----------------*|
E|-2-2-2-2-2-2-2-2-|-----------------|-5-5-5-5-5-5-5-5-|-5-5-5-5-5-5-5-5-|

Second Verse:

G|-------------|-------------|-------------|-------------|-------|
D|*------------|-------------|-------------|-------------|------*|
A|*--------5-7-|---------5-7-|---------5-7-|---------5-7-|5-----*|
E|-0-5-7-0-----|-0-5-7-0-----|-0-5-7-0-----|-0-5-7-0-----|-------|

G|-------------|-------------|-------------|-------------|-------|
D|*------------|-------------|-------------|-------------|------*|
A|*--------5-7-|---------5-7-|---------5-7-|---------5-7-|5-----*|
E|-0-5-7-0-----|-0-5-7-0-----|-0-5-7-0-----|-0-5-7-0-----|-------|

G|-------------|-------------|-------------|-------------|-------|
D|*------------|-------------|-------------|-------------|------*|
A|*--------5-7-|---------5-7-|---------5-7-|---------5-7-|5-----*|
E|-0-5-7-0-----|-0-5-7-0-----|-0-5-7-0-----|-0-5-7-0-----|-------|

G|-------------|-------------|-------------|-------------|-------|
D|*------------|-------------|-------------|-------------|------*|
A|*--------5-7-|---------5-7-|---------5-7-|---------5-7-|5-----*|
E|-0-5-7-0-----|-0-5-7-0-----|-0-5-7-0-----|-0-5-7-0-----|-------|

Chorus:

G|-----------------|-----------------|-----------------|-----------------|
D|*----------------|-----------------|-----------------|----------------*|
A|*----------------|-5-5-5-5-5-5-5-5-|-----------------|----------------*|
E|-2-2-2-2-2-2-2-2-|-----------------|-5-5-5-5-5-5-5-5-|-5-5-5-5-5-5-5-5-|

G|-----------------|-----------------|-----------------|-----------------|
D|*----------------|-----------------|-----------------|----------------*|
A|*----------------|-5-5-5-5-5-5-5-5-|-----------------|----------------*|
E|-2-2-2-2-2-2-2-2-|-----------------|-5-5-5-5-5-5-5-5-|-5-5-5-5-5-5-5-5-|

G|-----------------|-----------------|-----------------|-----------------|
D|*----------------|-----------------|-----------------|----------------*|
A|*----------------|-5-5-5-5-5-5-5-5-|-----------------|----------------*|
E|-2-2-2-2-2-2-2-2-|-----------------|-5-5-5-5-5-5-5-5-|-5-5-5-5-5-5-5-5-|

G|-----------------|-----------------|-----------------|-----------------|
D|*----------------|-----------------|-----------------|----------------*|
A|*----------------|-----------------|-----------------|----------------*|
E|-7-7-7-7-7-7-7-7-|-3-3-3-3-3-3-3-3-|-2-2-2-2-2-2-2-2-|-2-2-2-2-2-2-2-2-|

Interlude:

G|-----9---------|----9\-----------|-----9---------|----9\-----------|
D|*--------------|-----------------|---------------|----------------*|
A|*\7--------5---|-\7--------------|-\7--------5---|-\7-------------*|
E|------0-5h7--7-|-----------------|------0-5h7--7-|-----------------|

G|-----9---------|----9\-----------|-----9---------|----9\-----------|
D|*--------------|-----------------|---------------|----------------*|
A|*\7--------5---|-\7--------------|-\7--------5---|-\7-------------*|
E|------0-5h7--7-|-----------------|------0-5h7--7-|-----------------|

Chorus:

G|-----------------|-----------------|-----------------|-----------------|
D|*----------------|-----------------|-----------------|----------------*|
A|*----------------|-5-5-5-5-5-5-5-5-|-----------------|----------------*|
E|-2-2-2-2-2-2-2-2-|-----------------|-5-5-5-5-5-5-5-5-|-5-5-5-5-5-5-5-5-|

G|-----------------|-----------------|-----------------|-----------------|
D|*----------------|-----------------|-----------------|----------------*|
A|*----------------|-5-5-5-5-5-5-5-5-|-----------------|----------------*|
E|-2-2-2-2-2-2-2-2-|-----------------|-5-5-5-5-5-5-5-5-|-5-5-5-5-5-5-5-5-|

G|-----------------|-----------------|-----------------|-----------------|
D|*----------------|-----------------|-----------------|----------------*|
A|*----------------|-5-5-5-5-5-5-5-5-|-----------------|----------------*|
E|-2-2-2-2-2-2-2-2-|-----------------|-5-5-5-5-5-5-5-5-|-5-5-5-5-5-5-5-5-|

G|-----------------|-----------------|-----------------|-----------------|
D|*----------------|-----------------|-----------------|----------------*|
A|*----------------|-----------------|-----------------|-5-5-5-5-5-5-5-5*|
E|-7-7-7-7-7-7-7-7-|-3-3-3-3-3-3-3-3-|-2-2-2-2-2-2-2-2-|-----------------|

Break:

G|-----------------|-----------------|
D|*----------------|----------------*|
A|*----------------|----------------*|
E|-5-5-5-5-5-5-5-5-|-5-5-5-5-5-5-5-5-|

Chorus/Outro (Fade Out):

G|-----------------|-----------------|-----------------|-----------------|
D|*----------------|-----------------|-----------------|----------------*|
A|*----------------|-5-5-5-5-5-5-5-5-|-----------------|----------------*|
E|-2-2-2-2-2-2-2-2-|-----------------|-5-5-5-5-5-5-5-5-|-5-5-5-5-5-5-5-5-|

G|-----------------|-----------------|-----------------|-----------------|
D|*----------------|-----------------|-----------------|----------------*|
A|*----------------|-5-5-5-5-5-5-5-5-|-----------------|----------------*|
E|-2-2-2-2-2-2-2-2-|-----------------|-5-5-5-5-5-5-5-5-|-5-5-5-5-5-5-5-5-|

There's a few other versions of this song in tab, but I think this is a
little more closer to what Jeff Ament's probably playing. Enjoy!
            
Submit corrections

comments powered by Disqus
↑ Back to top | Pearl Jam Bass for Push Me Pull Me. Lyrics for acoustic guitar and electric guitar. 1 Tablatures and chords are parodies/interpretations of the original songs. You may use it for private study, scholarship, research or language learning purposes only