» » »

Push Me Pull Me Bass tabs (ver.4)

Artists:  A B C D E F G H I J K L M N O P Q R S T U V W X Y Z # 

Push Me Pull Me Bass tabs (ver.4)

Pearl Jam
Rating:
0/5 (0 votes)

Hard to play? Try these video lessons and learn fast.
                
---------------------------

 h = hammer-on
 p = pull-off

Standard Tuning: EADG


Verse:
|--------------|     |-----------------|
|--------------|     |-----------------|
|---------5h7--| x3  |---------5h7p5---| x1
|-0---3h5------|     |-0---3h5---------|

Chorus:
|-----------------|-----------------|-----------------|-----------------|
|-----------------|-----------------|-----------------|-----------------|
|-----------------|-5-5-5-5-5-5-5-5-|-----------------|-----------------| 
|-7-7-7-7-7-7-7-7-|-----------------|-5-5-5-5-5-5-5-5-|-5-5-5-5-5-5-5-5-|

Interlude:
|--------------------------------|
|-------14--------------------12-|
|-----------12h14--14--12h14-----|
|-12-12--------------------------|
            
Hard to play? Try these video lessons and learn fast. | Correct




comments powered by Disqus
↑ Back to top | Tablatures and chords are parodies/interpretations of the original songs. You may use it for private study, scholarship, research or language learning purposes only