» » »

Pearl Jam, Off He Goes Tabs (ver.3)

Artists:  A B C D E F G H I J K L M N O P Q R S T U V W X Y Z # 

Off He Goes Tabs (ver.3)

Pearl Jam Tabs
Rating:
0/5 (0 votes)
Off He Goes lessons Tabs too difficult? Try these video lessons and learn fast
                
Standert Tuning

Intro:
       F        Am 
E-----------------------------------------------
B------1lr--------------------------------------
G------2lr--------------------------------------
D---3-2-----------------------------------------
A--3--------------------------------------------
E-1---------------------------------------------
After intro During the singing. Play this
       F         C
E--1-1--1--X-----------------------------------
B--1-1--1--1-----------------------------------
G--2-2--0--X-----------------------------------  Mostly alot of opens during the song
D--3-3--0--2-----------------------------------
A--0-0-----3-----------------------------------
E--X-X-----------------------------------------

Ending tab here

E--1-1--1-0-------------0----------------------
B--1-1--1-1------1------1----------------------
G--2-2--0-0----2----0---0----------------------
D--3-3--0-2--3------0---2----LET RING----------
A--0-0----3-------------3----------------------
E-----------------------X----------------------

This may be the tuning's for this song

Eb Ab Db Gb Bb Eb
            

comments powered by Disqus
↑ Back to top | Pearl Jam Tabs for Off He Goes. Lyrics for acoustic guitar and electric guitar. Tablatures and chords are parodies/interpretations of the original songs. You may use it for private study, scholarship, research or language learning purposes only