>
 >
Nothing As It Seems 1

Nothing As It Seems 1 Guitar Tabs

Pearl Jam - Nothing As It Seems 1 chords, tabs, tablatures, lyrics

Guitar lessons | Add/correct | Request | Top 50 tabs Artists:  A B C D E F G H I J K L M N O P Q R S T U V W X Y Z 0-9

Nothing As It Seems 1 Guitar Tabs – Pearl Jam

CD, Sheet music, Poster

Do you like Nothing As It Seems 1? Share with your friends now
Bass TabsChordsTabsTabs v2Tabs v3Ukulele
Pearl Jam-Nothing As It Seems
-Standard Tuning-
-This is how its played live acoustic, or my version of it anyway-
-Inlyghtened1-


-Intro-
-------------------------|--7----10-10-10----12-12-12--10-10-10--7-7-7--
-------------------------|--7----10-10-10----12-12-12--10-10-10--7-7-7--
--9b11--9b11r9-9b11--7---|----------------------------------------------
-----------------------9-|----------------------------------------------
-------------------------|----------------------------------------------
-------------------------|----------------------------------------------

-Intro/Verse-
(chords)
-----------------------|-----------------------
-----------------------|-----------------------
-4--4--4--4-4--4-4-4-4-|-3--3--3--3-3--3-3-3-3-
-4--4--4--4-4--4-4-4-4-|-0--0--0--0-0--0-0-0-0-
-2--2--2--2-2--2-2-2-2-|-1--1--1--1-1--1-1-1-1-
-----------------------|-----------------------  

                                                                                    
-Verse-(quiet)
------7-------7-------6---------6-------7-------7-------7-------7------
----7---7---7---7---7---7-----7---7---7---7---7---7---7---7---7---7----
--7-------7-------6-------6-6-------7-------7-------7-------7-------7--
             

-Chorus-
(chords)
------------------------|-----------------------|-----------------------
------------------------|-------2--2-2--2-2-----|-----------------------
--7--7--7--7-7--7-7-7-7-|-2--2--2--2-2--2-2-2-2-|-4--4--4--4-4--4-4-4-4-
--7--7--7--7-7--7-7-7-7-|-2--2--2--2-2--2-2-2-2-|-4--4--4--4-4--4-4-4-4-
--5--5--5--5-5--5-5-5-5-|-0--0--0--0-0--0-0-0-0-|-2--2--2--2-2--2-2-2-2-
------------------------|-----------------------|-----------------------
                   

------7---7-----------7---7-----------7---7-----------7---7--------
----7---7---9-7-9---7---7---9-7-9---7---7---9-7-9---7---7---9-7-9--
--9---------------8---------------7---------------8----------------
                                                


-Bridge-
-----------------------------------------------|--------|----------7------
-----------------------------------------------|--------|--10b12vv---10---
--13-13-13-13-12-12-12-12-11-11-11-11-9-9-9\7--|--------|-----------------
--x--x--x--x--x--x--x--x--x--x--x--x--x-x-x-x--|--------|-----------------
--11-11-11-11-10-10-10-10-9--9--9--9--7-7-7\5--|--------|-----------------
-----------------------------------------------|--------|-----------------                                                                 

---------------------------------------------------
--7-10-7-10-7-10-7vvv------------------------------
-----------------------9-7--------------------9p7--
---------------------------9-9-7--------7---7------
---------------------------------9--7-9---9--------
---------------------------------------------------
                                                                              
-----------------------------------------------
-----------------------------------------------
--13-13-13-13-12-12-12-12-11-11-11-11-9-9-9\7--
--x--x--x--x--x--x--x--x--x--x--x--x--x-x-x-x--
--11-11-11-11-10-10-10-10-9--9--9--9--7-7-7\5--
-----------------------------------------------
                                                                              
--17b19-19-19-19-19-19-18-18-18-18-18-18-18-18-18-17-17-17-17-17-
--------------------------15-15-15-15-15-15-15-15-15-15-15-15-15-
                                     
----------------------------------------------------|-------------|----
----------------------------------------------------|--10--\9--7--|-10-
--13-13-13-12-12-12-12-11-11-11-11-11-11-11-11---\--|-------------|----
--x--x--x--x--x--x--x--x--x--x--x--x--x--x--x-------|-------------|----
--11-11-11-10-10-10-10-9--9--9--9--9--9--9--9----\--|-------------|----
----------------------------------------------------|-------------|----
                                                                              

-Outro-
--------7--------7--------7--------7---------7----------------------------
--10b12---10p7-----10p7-----10p7-----10p7---------------------------------
---------------9--------9--------9--------9----9b11r9p7--9-9-7h9p7---7----
                                                               

---------------
---------------
--7-7-7--------
--------9-9vv\-
---------------
---------------





Comments


Popular Pearl Jam tabs & chords
Blood Bass Tabs
Who You Are Bass Tabs
Alive 1 Chords
Elderly Woman Behind The Counter 3 Chords
Come Back 3 Tabs
Nothing As It Seems 2 Tabs
Running Out Of Time Tabs
Why Go 1 Tabs
Yellow Ledbetter Tabs
Down Ukulele


Song lyrics



↑ Back to top | Tablatures and chords are parodies/interpretations of the original songs. You may use it for private study, scholarship, research or language learning purposes only
© 2014 AZChords.com Contact us | Privacy policy | DMCA | Add/correct tabs | Request tabs | Top 50 tabs