>
 >
Mind Your Manners 2

Mind Your Manners 2 Bass Tabs

Pearl Jam - Mind Your Manners 2 chords, tabs, tablatures, lyrics

Guitar lessons | Add/correct | Request | Top 50 tabs Artists:  A B C D E F G H I J K L M N O P Q R S T U V W X Y Z 0-9

Mind Your Manners 2 Bass Tabs – Pearl Jam

CD, Sheet music, Poster

Do you like Mind Your Manners 2? Share with your friends now
Bass TabsBass Tabs v2TabsTabs v2Tabs v3Tabs v4
-----------------------------------------------------------------
        MIND YOUR MANNERS - Pearl Jam
-----------------------------------------------------------------


Tuning: Standard

Here is my very basic take on this song. Feel free to add variation! This is just what 
the core of the song revolves around.

Can't wait for the new album!

Intro
G|---------------------------------------------------------------|
D|---------------------------------------------------------------|
A|---------------------------------------------------------------|
E|-8-7-7-7-0-8-7-7-7-0-8-7-7s0----8-7-7-7-0-8-7-7-7-0-8-7-7s0----|

G|-----------------------------------------------------------------|
D|-----------------------------------------------------------------|
A|-----------------------------------------------------------------|
E|-8-7-7-7-0-8-7-7-7-0-8-7-7s0----8-7-7-7-0-8-7-7-7-0-8-7-7s0-0s12-|

Main verse
G|------------------------------------|
D|------------------------------------|
A|----------8-7-5---------------------|x4
E|-7-7-7-0----------7-7-7-0-8-7-5-----|

G|----------------------------------------------------------------------|
D|----------------------------------------------------------------------|
A|--5-5-5-0-3-5-3-----------3-3-3-3---5-5-5-0-3-5-3-----------3---------|
E|-----------------5-5-5-5---------------------------5-5-5-5-----0s12---|

After 2nd time through main verse, play this

G|---------------------------------------------------------------|
D|---------------------------------------------------------------|
A|--5-5-5-0-3-5-3-----------3-3-3-3---5-5-5-0-3-5-3--------------|
E|-----------------5-5-5-5---------------------------------------|

G|----------------------------------------------------|
D|----------------------------------------------------|
A|----------------------------------------------------|x3
E|--5--------3---------2---------3--------5-----------|

Guitar solo, same as main verse.
You can kind of piece together the rest of the song from what you have so far.

Ending
G|---------------------------------------------------------------|
D|---------------------------------------------------------------|
A|-------7-7-7---------5---5-------------------------------------|
E|-7-7-7--------3-3-3----5---------------------------------------|

Do that a couple times through, then the last time through its..

G|---------------------------------------------------------------|
D|---------------------------------------------------------------|
A|-------7-7-7---------5---5-5---5-------------------------------|
E|-7-7-7--------3-3-3----5-----5----7s0--------------------------|





Comments


Popular Pearl Jam tabs & chords
Leash 4 Bass Tabs
Black 1 Chords
Driftin Chords
Lukin' Chords
Even Flow Drum Tabs
Tremor Christ Drum Tabs
Believe You Me Tabs
Face Of Love 1 Tabs
Rocking In The Free World Tabs
Jeremy 2 Ukulele


Song lyrics



↑ Back to top | Tablatures and chords are parodies/interpretations of the original songs. You may use it for private study, scholarship, research or language learning purposes only
© 2014 AZChords.com Contact us | Privacy policy | DMCA | Add/correct tabs | Request tabs | Top 50 tabs