>
 >
Man Of The Hour 1

Man Of The Hour 1 Guitar Tabs

Pearl Jam - Man Of The Hour 1 chords, tabs, tablatures, lyrics

Guitar lessons | Add/correct | Request | Top 50 tabs Artists:  A B C D E F G H I J K L M N O P Q R S T U V W X Y Z 0-9

Man Of The Hour 1 Guitar Tabs – Pearl Jam

CD, Sheet music, Poster

Do you like Man Of The Hour 1? Share with your friends now
ChordsTabsTabs v2Tabs v3Ukulele


Standard tuning Eadgbe


C -        x32010
G -        320033
Am -       x02210
F -        133211
E -        022100
D9/F# -    200230
Dadd9/F# - 200210
C/G -	   3X2010


  C		     G		       C		 G
-|-----------------|-3-----0---------|-----------------|-----------------|
-|-1-1---3---1-3-0-|-----3-----3-----|-1-1---3---3-1-3-|-------3---------|
-|-0-0---0-------0-|-----------0-----|-0-0---0-------0-|-----------0-----|
-|-----------------|-------------0---|-----------------|-------------0---|
-|-3---3---3-------|---------------0-|-3---3---3-------|---------------0-|
-|-----------------|-3---3---3---3---|-----------------|-3---3---3---3---|


   C		     G		       Am	         G
-|-----------------|-3-3---0---------|-----------------|-----------0-----|
-|-1-1---3---1-3-0-|-----------3-----|-1-1---0---1---3-|-------3-----3---|
-|-0-0---0-------0-|-----------0---0-|-2-2-----------0-|---------------0-|
-|-----------------|-----------------|-----------------|-----------------|
-|-3---3---3-------|-----------------|-0---0---0---0---|-2---2---2-------|
-|-----------------|-3---3---3---3---|-----------------|-----------------|


   Am                G   	       C                 G
-|-----------------|-----------------|-----------------|-3-----0---------|
-|-1-1-----------0-|-------3---------|-1-1---3---1---0-|-----3-----3-----|
-|-2-----2-------0-|-----------0-----|-0-0---0-------0-|-----------0-----|
-|-----------2-----|-------------0---|-----------------|-----------------|
-|-0---0---0---0---|---------------0-|-3---3---3-------|---------------0-|
-|-----------------|-3---3---3---3---|-----------------|-3---3---3---3---|
				       Tidal waves don't beg forgiveness

   C		     G		       C		 G		     
-|-----------------|-----------------|-----------------|-3-3---0---------|
-|-1-1---3---3-1-3-|-------3---------|-1-1---3---1---0-|-----------3-----|
-|-0-0---0-------0-|-----------------|-0-0---0-------0-|-----------0-----|
-|-----------------|-----------0---0-|-----------------|-----------------|
-|-3---3---3-------|-----------------|-3---3---3-------|---------------0-|
-|-----------------|-3---3-------3---|-----------------|-3---3---3---3---|
   Crash, then on their way            Father, he enjoyed collisions

   Am		     G		       Am		 G
-|-----------------|-----------0-----|-----------------|---------------3-|
-|-1-1---0---1---3-|-------3-----3---|-1-1-----------0-|-------3---3-----|
-|-2-2-----------0-|---------------0-|-2-----2-------0-|-------------0---|
-|-----------------|-----------------|-----------2-----|-----------------|
-|-0---0---0---0---|-2---2---2-------|-0---0---0---0---|-2---------------|
-|-----------------|-----------------|-----------------|-3---3---3---3---|
   Others walked away                A snowflakes falls in May

   		      
-|-----------------|-1-----3---1-----|-------0---1-----|-------3---0-----|
-|---3-------3-----|-----------------|-0-------------0-|-1-1-----------1-|
-|-------0---------|-----------------|-----------------|-----------------|
-|---------------2-|-3---3---3---2-3-|-----------------|-----------------|
-|-----------------|-----------------|-2---2---2---2-0-|-----0---0---0---|
-|-3---3---3---3---|-----------------|-----------------|-----------------|
   	     And the doors are open now          As the bells are ringing

    
-|-----------------|---1---0---1-----|-----------------|---1---0---1-----|-----------------| 
-|-------0---1---1-|---------------0-|---0---1---3---10|---------------0-|---0---1---3-----| 
-|-----------------|-----------------|-----------------|-----------------|-----------------| 
-|-----------------|-3---3---3---3---|-3---3---3---3---|-----------------|-----------------| 
-|-----------------|-----------------|-----------------|-2---2---2---2---|-2---2---2-------| 
-|-2---2---2---2---|-----------------|-----------------|-----------------|-----------------| 
   Out       Cause the Man of the Hour 	     Is taking	   His final bow         G'dbye for 

  C		     G		       C		 G
-|-----------------|-3-----0---------|-----------------|-----------------|
-|-1-1---3---1-3-0-|-----3-----3-----|-1-1---3---3-1-3-|-------3---------|
-|-0-0---0-------0-|-----------0-----|-0-0---0-------0-|-----------0-----|
-|-----------------|-------------0---|-----------------|-------------0---|
-|-3---3---3-------|---------------0-|-3---3---3-------|---------------0-|
-|-----------------|-3---3---3---3---|-----------------|-3---3---3---3---|
   Now

   C		     G		       Am	     	 G
-|-----------------|-3-3---0---------|-----------------|-----------0-----|
-|-1-1---3---1-3-0-|-----------3-----|-1-1---0---1---3-|-------3-----3---|
-|-0-0---0-------0-|-----------0---0-|-2-2-----------0-|---------------0-|
-|-----------------|-----------------|-----------------|-----------------|
-|-3---3---3-------|-----------------|-0---0---0---0---|-2---2---2-------|
-|-----------------|-3---3---3---3---|-----------------|-----------------|


   Am                G   	       C                 G
-|-----------------|-----------------|-----------------|-3-----0---------|
-|-1-1-----------0-|-------3---------|-1-1---3---1---0-|-----3-----3-----|
-|-2-----2-------0-|-----------0---0-|-0-0---0-------0-|-----------0---0-|
-|-----------2-----|-------------0---|-----------------|-----------------|
-|-0---0---0---0---|-----------------|-3---3---3-------|-----------------|
-|-----------------|-3---3---3---3---|-----------------|-3---3---3---3---|
				       Nature has its own religion

   C		     G		       C		 G		     
-|-----------------|-----------------|-----------------|-3-3---0---------|
-|-1-1---3---3-1-3-|-------3---------|-1-1---3---1---0-|-----------3-----|
-|-0-0---0-------0-|-----------------|-0-0---0-------0-|-----------0-----|
-|-----------------|-----------0-----|-----------------|-----------------|
-|-3---3---3-------|---------------0-|-3---3---3-------|---------------0-|
-|-----------------|-3---3-------3---|-----------------|-3---3---3---3---|
   Gospel from the Land		       Father ruled by long division

   Am		     G		       Am		 G
-|-----------------|-----------0-----|-----------------|---------------3-|
-|-1-1---0---1---3-|-3-----3-----3---|-1-1-----------0-|-------3---3-----|
-|-2-2-----------0-|-0-------------0-|-2-----2-------0-|-0-----------0---|
-|-----------------|-0---------------|-----------2-----|-0---------------|
-|-0---0---0---0---|-2---2---2-------|-0---0---0---0---|-2---------------|
-|-----------------|-----------------|-----------------|-3---3---3---3---|
   Young men they pretend              Old men comprehend 

   G		      
-|-----------3p0---|-1-----3---1-----|-------0---1-----|-------3---0-----|
-|---3----------3--|-----------------|-0-------------0-|-1-1-----------1-|
-|-------0-------0-|-----------------|-----------------|-----------------|
-|-----------------|-3---3---3---2-3-|-----------------|-----------------|
-|-----------------|-----------------|-2---2---2---2-0-|-----0---0---0---|
-|-3---3---3-------|-----------------|-----------------|-----------------|
   	    And the  sky breaks at dawn          Shedding light upon this 


-|-----3-3---0-----|-----------------|-----------------| 
-|---1-----------1-|---3---3---3---1-|-----------------| 
-|-----------------|-----------------|-----------------| 
-|-----------------|-0---0---0---0---|-0---0-----------| 
-|-3---3---3---3---|-----------------|-----------------| 
-|-----------------|-----------------|-----------------| 
   Town	   They all come around		      Cause the 


-|---1---0---1-----|-----------------|---1---0---1-----|-----------------| 
-|---------------0-|---0---1---3---10|---------------0-|---0---1---3-----| 
-|-----------------|-----------------|-----------------|-----------------| 
-|-3---3---3---3---|-3---3---3---3---|-----------------|-----------------| 
-|-----------------|-----------------|-2---2---2---2---|-2---2---2-------| 
-|-----------------|-----------------|-----------------|-----------------| 
   Man of the Hour 	Is Taking	 His final bow	       G'dbye for 


   C		      
-|---------------0-|-----------------|---------------3-|---3---3---3-----|
-|-1---1-1---1-----|---1---3---3---1-|-------1---1---1-|---1---1---1---1-|
-|-0---0-0---------|---0---0---0---0-|-------0---0-----|---------------0-|
-|-----------------|-----------------|-----------------|-----------------|
-|-3---3---3---3---|-3---3---3---3---|-3---3---3---3---|-3---3---3---3---|
-|-----------------|-----------------|-----------------|-----------------|
   Now


 	 E
And the road 
	     F
The old man paved
            C
The broken seams
   	   D9/F#     Dadd9/F#
Along the way
	F
Rusted signs
	       E	
Left just for me
        Am         
He was guiding me
C/G            D9/F#
Love, his own way
F
Now the



-|---1---0---1-----|-----------------|---1---0---1-----|-----------------| 
-|---------------0-|---0---1---3---10|---------------0-|---0---0---1-3-1-| 
-|-----------------|-----------------|-----------------|-----------------| 
-|-3---3---3---3---|-3---3---3---3---|-----------------|-----------------| 
-|-----------------|-----------------|-2---2---2---2---|-2---2---2---2---| 
-|-----------------|-----------------|-----------------|-----------------| 
   Man of the Hour 	Is Taking	 His final bow	   	 As the

-|---1---0---1-----|-----------------|---1---0---1-----|-----------------| 
-|---------------0-|---0---1---3---10|---------------0-|---0---1---3-----| 
-|-----------------|-----------------|-----------------|-----------------| 
-|-3---3---3---3---|-3---3---3---3---|-----------------|-----------------| 
-|-----------------|-----------------|-2---2---2---2---|-2---2---2-------| 
-|-----------------|-----------------|-----------------|-----------------| 
   Curtain comes down 	I feel	 	That this is just      G'dbye for 


  C		     G		       C		 G
-|-----------------|-3-3---0---------|-----------------|-----------------|
-|-1-1---3---1-3-0-|-----------3-----|-1-1---3---3-1-3-|-------3---------|
-|-0-0---0-------0-|-----------0-----|-0-0---0-------0-|-----------0-----|
-|-----------------|-------------0---|-----------------|-------------0---|
-|-3---3---3-------|---------------0-|-3---3---3-------|---------------0-|
-|-----------------|-3---3---3---3---|-----------------|-3---3---3---3---|
   Now

   C		     G		       Am	         G
-|-----------------|-3-3---0---------|-----------------|-----------0-----|
-|-1-1---3---1-3-0-|-----------3-----|-1-1---0---1---3-|-------3-----3---|
-|-0-0---0-------0-|-----------0---0-|-2-2-----------0-|---------------0-|
-|-----------------|-----------------|-----------------|-----------------|
-|-3---3---3-------|-----------------|-0---0---0---0---|-2---2---2-------|
-|-----------------|-3---3---3---3---|-----------------|-----------------|


   Am                G   	        
-|-----------------|-----------------| 
-|-1-1-------------|-----------------| 
-|-2-----2---------|-0---------------| 
-|-----------2-----|-0---------------| 
-|-0---0---0-------|-2---------------| 
-|-----------------|-3---------------|





Comments


Popular Pearl Jam tabs & chords
Happy When Im Crying Bass Tabs
Leatherman 3 Bass Tabs
Light Years Bass Tabs
Low Light Bass Tabs
Soldier Of Love Chords
Dissident Tabs
Footsteps 1 Tabs
Green Disease Tabs
Mfc Tabs
Smile Tabs


Song lyrics



↑ Back to top | Tablatures and chords are parodies/interpretations of the original songs. You may use it for private study, scholarship, research or language learning purposes only
© 2014 AZChords.com Contact us | Privacy policy | DMCA | Add/correct tabs | Request tabs | Top 50 tabs