» » »

Pearl Jam, Love Boat Captain Tabs (ver.3)

Artists:  A B C D E F G H I J K L M N O P Q R S T U V W X Y Z # 

Love Boat Captain Tabs (ver.3)

Pearl Jam Tabs
 Rating:
4/5 (4 votes)
Love Boat Captain lessons Tabs too difficult? Try these video lessons and learn fast
                Standard

Intro : Palm Muted
e---------------------------------------------------
B---------------------------------------------------
G---------------------------------------------------
D-10--10--10--10--10-10-10-10-555555555-333333333333
A-10--10--10--10--10-10-10-10-555555555-333333333333
E-8---8---8---8---8--8---8--8-333333333-111111111111

Is this just another day...... this God forgotten Place
first comes love and then comes pain.  let the games begin.....
questions rise and answers fall..... insurmountable.

Next part: ( riff 2 )

B
love boat captain
D                                         B
take the reigns and steer us towards the clear...... here
D                                 
Its already been sung but it cant be said enough    
                F                                             
all you need is love

Riff after he sings love :
e--------------------
B--------------------
G--2----------2------
D---3----3---3-------
A----3--3---3--------
E-----1----1---------

Play the intro again:

Is this just another phase?  earthquakes making waves......
Trying to shake the cancer off?  stupid human beings......
once you hold the hand of love..... its all surmountable.

Interlude:
A            C    G      A        C           G
hold me, and make it the truth
A                C    G             A        C      G
that when all is lost there will be you....
             A               C      G
cause to the universe i don't mean a thing
           A               C         G          F
and there's just one word i still believe and it love

Riff when he sings love right there:
e------------------------                    e---------
B------------------------                    B---------
G------------------------ repeat that as     G-33333333
D---3-2---2------3-2--2-- nessacary and then D-33333333
A--3----3---3--3-----3--2 play this          A-11111111
E-1-----------1----------                    E---------

Stone plays that again and the second time Mike plays this:
e------------------------------
B--13----13--13/15--13---15--13
G------------------------------
D------------------------------
A------------------------------
E------------------------------

Play the intro riff through this next verse:

Its an art to live with pain..... mix the light into gray......
lost 9 friends we’ll never know..... 2 years ago today.
and if our lives became too long, would it lead to our regret?

Play riff 2 when he sings this:

and the young, they can lose hope cause they cant see beyond today....
the wisdom that the old cant give away hey.....
constant recoil.....sometimes life don't leave you alone
  

Then play the interlude again


I have no idea how to play the solo


Then play the intro at the end.


Thanx.

Here are the chords
   A      G     C      D        C         F
e------------------------------------------
B------------------------------------------
G----------------------7--------5----------
D--7------5-----10-----7--------5---------3
A--7------5-----10-----5--------3---------3
E--5------3-----8-------------------------1
            
Submit corrections

comments powered by Disqus
↑ Back to top | Pearl Jam Tabs for Love Boat Captain. Lyrics for acoustic guitar and electric guitar. Tablatures and chords are parodies/interpretations of the original songs. You may use it for private study, scholarship, research or language learning purposes only