>
 >
Leash

Leash Guitar Tabs

Pearl Jam - Leash chords, tabs, tablatures, lyrics

Guitar lessons | Add/correct | Request | Top 50 tabs Artists:  A B C D E F G H I J K L M N O P Q R S T U V W X Y Z 0-9

Leash Guitar Tabs – Pearl Jam

CD, Sheet music, Poster

Do you like Leash? Share with your friends now
Bass TabsBass Tabs v2Bass Tabs v3Bass Tabs v4TabsTabs v2

*Dropped-D tuning*
(D-A-D-G-B-E)


Intro 
Gtr I
-|--------------------------------------------------|-
-|--------------------------------------------------|-
-|--------------------------------------------------|-
-|-/9-9-9-9-9-9-9-9-9-9-9-9-9-9-9-9-9-9-9-9-9-9-9-9-|-
-|----x-x-x-x-x-x-x-x-x-x-x-x-x-x-x-x-x-x-x-x-x-x-x-|-
-|-/9-9-9-9-9-9-9-9-9-9-9-9-9-9-9-9-9-9-9-9-9-9-9-9-|-


Verse 1
Gtr I
-|-------------------------------------------------------|-
-|-------------------------------------------------------|-
-|-------------------------------------------------------|-
-|-7-/-9--9---9-------9--9-9-9-9-9-9-9-9-9-9-9-9-9-9-9-9-|- 4x
-|-7-/-9--9---9-------9--9-9-9-9-9-9-9-9-9-9-9-9-9-9-9-9-|-
-|-7-/-9--9---9h10p9--9--9-9-9-9-9-9-9-9-9-9-9-9-9-9-9-9-|-

Gtr II (with wah)
-|---|------------|-
-|---|-10-12------|-
-|---|-------9h11-|-
-|-9-|------------|- 4x
-|---|------------|-
-|---|------------|-
 

Pre Chorus
Gtr I
-|---------------------|-
-|---------------------|-
-|---------------------|-
-|-7-7-7-10-11-12-7-10-|-
-|-7-7-7-10-11-12-7-10-|-
-|-7-7-7-10-11-12-7-10-|-

Gtr II
-|--------------------------|-
-|--------------------------|-
-|--------------------------|-
-|----------10-11-12----10~-|-
-|-12-12-12----------12-----|-
-|--------------------------|-


Chorus
Gtr I
-|----------------------------------------------------------|-
-|----------------------------------------------------------|-
-|----------------------------------------------------------|-
-|-10--10-10-10--10--10-10-10----10--10-10-10--10--10-10-10-|-
-|-10--10-10-10--10--10-10-10-----8---8--8--8---8---8--8--8-|-
-|-10--10-10-10--10--10-10-10-------------------------------|- \
                                                                2x
-|----------------------------------------------------------|- /
-|----------------------------------------------------------|-
-|----------------------------------------------------------|-
-|--8---8--8--8---8---8--8--8----10--10-10-10--10--10-10-10-|-
-|--8---8--8--8---8---8--8--8----10--10-10-10--10--10-10-10-|-
-|--8---8--8--8---8---8--8--8----10--10-10-10--10--10-10-10-|-

Gtr II 
-|------------------------|-----------------------|-
-|------------------------|-----------------------|-
-|---7--7--7--5--5--5--5--|--3--3--3--5--5--5--5--|-
-|---x--x--x--x--x--x--x--|--x--x--x--x--x--x--x--|- 4x
-|---5--5--5--3--3--3--3--|--1--1--1--3--3--3--3--|-
-|------------------------|-----------------------|-


Verse 2
Gtr I
-|-------------------------------------------------------|-
-|-------------------------------------------------------|-
-|-------------------------------------------------------|-
-|-7-/-9--9---9-------9--9-9-9-9-9-9-9-9-9-9-9-9-9-9-9-9-|- 6x
-|-7-/-9--9---9-------9--9-9-9-9-9-9-9-9-9-9-9-9-9-9-9-9-|-
-|-7-/-9--9---9h10p9--9--9-9-9-9-9-9-9-9-9-9-9-9-9-9-9-9-|-

Gtr II (with wah)
-|---|------------|-
-|---|-10-12------|-
-|---|-------9h11-|-
-|-9-|------------|- 6x
-|---|------------|-
-|---|------------|-
 

Pre Chorus
Gtr I
-|---------------------|-
-|---------------------|-
-|---------------------|-
-|-7-7-7-10-11-12-7-10-|-
-|-7-7-7-10-11-12-7-10-|-
-|-7-7-7-10-11-12-7-10-|-

Gtr II
-|--------------------------|-
-|--------------------------|-
-|--------------------------|-
-|----------10-11-12----10~-|-
-|-12-12-12----------12-----|-
-|--------------------------|-


Chorus
Gtr I
-|----------------------------------------------------------|-
-|----------------------------------------------------------|-
-|----------------------------------------------------------|-
-|-10--10-10-10--10--10-10-10----10--10-10-10--10--10-10-10-|-
-|-10--10-10-10--10--10-10-10-----8---8--8--8---8---8--8--8-|-
-|-10--10-10-10--10--10-10-10-------------------------------|- \
                                                                4x
-|----------------------------------------------------------|- /
-|----------------------------------------------------------|-
-|----------------------------------------------------------|-
-|--8---8--8--8---8---8--8--8----10--10-10-10--10--10-10-10-|-
-|--8---8--8--8---8---8--8--8----10--10-10-10--10--10-10-10-|-
-|--8---8--8--8---8---8--8--8----10--10-10-10--10--10-10-10-|-

Gtr II 
-|------------------------|-----------------------|-
-|------------------------|-----------------------|-
-|---7--7--7--5--5--5--5--|--3--3--3--5--5--5--5--|-
-|---x--x--x--x--x--x--x--|--x--x--x--x--x--x--x--|- 8x
-|---5--5--5--3--3--3--3--|--1--1--1--3--3--3--3--|-
-|------------------------|-----------------------|-


*at this point, either a third guitar, or one of the other two
begins playing the solo while the other(s) continue with the 
chorus. to keep it simple, i'll call it Gtr III*

Solo
Gtr III (with wah)
-|----------------------------------------------------------|-
-|-15-15-15-13-13-13-10-10-10-13-13-13-15-15-15-15-13-11-11-|-
-|----------------------------------------------------------|-
-|----------------------------------------------------------|-
-|----------------------------------------------------------|-
-|----------------------------------------------------------|-

-|--------------------------------------------15-17-15--17-15-|-
-|-13-15-13-15-17-18-17-15-17-18-17-15-17-18------------------|- (hit each
-|------------------------------------------------------------|- note a few
-|------------------------------------------------------------|- times)
-|------------------------------------------------------------|-
-|------------------------------------------------------------|-

-|-------15-------15-------15-------15-------15-----|-
-|-15h17----15h17----15h17----15h17----15h17----17\-|-
-|--------------------------------------------------|-
-|--------------------------------------------------|-
-|--------------------------------------------------|-

-|--------------------------------------------------------------|-
-|@-------------------------------------------------------------|-
-|--------------------------------------------------------------|-
-|---8-/-10-10--10-------10-10-10-10-10-10-10-10-10-10-10-10-10-|-
-|@--8-/-10-10--10-------10-10-10-10-10-10-10-10-10-10-10-10-10-|-
-|---8-/-10-10--10h11p10-10-10-10-10-10-10-10-10-10-10-10-10-10-|-

-|---------------|-
-|-11-13--------@|-
-|-------10-12---|-
-|---------------|- 4x
-|--------------@|-
-|---------------|-

-|-------------------------------------------------------------|-
-|-20----20----------20-------20-------20----------------------|-
-|-19b21-19b21-19b21----19b21----19b21----19b21r19-17----17-19-|-
-|------------------------------------------------------19-----|-
-|-------------------------------------------------------------|-
-|-------------------------------------------------------------|-

-|------------------------------------------------------|-
-|---------------------------------------------17-20-17-|-
-|-17----17---------------------17h19p17-19b21----------|-
-|----19-----19-17----17--17h19-------------------------|-
-|-----------------19-----------------------------------|-

-|-20b22-20-17----17-------20b22-20-17-------20b22-20-17-------------17-|-
-|-------------20----20-17-------------20-17-------------20-17-20b22----|-
-|----------------------------------------------------------------------|-
-|----------------------------------------------------------------------|-
-|----------------------------------------------------------------------|-
-|----------------------------------------------------------------------|-

-|----------------------20b22-20-17-------------17----------------------|-
-|-20-17----------17-17-------------20-17-20b22----20-17----------------|-
-|-------19b21r19----------------------------------------19b21r19-17----|-
-|-------------------------------------------------------------------19-|-
-|----------------------------------------------------------------------|-
-|----------------------------------------------------------------------|-

-|-------------------------------|-
-|-------------------------------|-
-|-17h19p17----------------------|-
-|-----------19p17----17--19-17\-|-
-|-----------------19------------|-
-|-------------------------------|-

-|------------------------------------------|-
-|-----------------7------------------------|-
-|-----5h7p5---7b9---7p5--7p5---5---7b9-7b9-|-
-|-7-7-------7----------------7---7---------|-
-|------------------------------------------|-
-|------------------------------------------|-

Gtr ? end on
-|-----------|-
-|-----------|-
-|-----------|-
-|-10-10--10-|-
-|-10-10--10-|-
-|-10-10--10-|-                                              





Comments


Popular Pearl Jam tabs & chords
Dead Man Walking 1 Bass Tabs
Nothing As It Seems Chords
Thin Air Chords
Last Kiss 2 Drum Tabs
Believe You Me Tabs
Evacuation Tabs
Just Breathe 3 Tabs
Masters Of War Tabs
Running Out Of Time Tabs
Sleeping By Myself 2 Tabs


Song lyrics



↑ Back to top | Tablatures and chords are parodies/interpretations of the original songs. You may use it for private study, scholarship, research or language learning purposes only
© 2014 AZChords.com Contact us | Privacy policy | DMCA | Add/correct tabs | Request tabs | Top 50 tabs