» » »

Last Kiss Bass tabs (ver.1)

Artists:  A B C D E F G H I J K L M N O P Q R S T U V W X Y Z # 

Last Kiss Bass tabs (ver.1)

Pearl Jam
Rating:
0/5 (0 votes)

Hard to play? Try these video lessons and learn fast.
                (4String)
Last Kiss
Pearl Jam
Bass Tab
By Jesse Johnston
Listen to song for timing.

G:-------------------------------------------------------
D:-------------------------------------------------------
A:----------------------2-3-3-3-7-5-5-5--------------
E:---3-3-3--2--0-0-0---------------------0----------- X’s Many as needed

Variation Occurs twice in song:
G:-------------------------------------------------------
D:-------------------------------------------------------
A:----------------------2-3-3-3-7-55-33-22-00------
E:---3-3-3--2--0-0-0----------------------------------


Please Rate!

Best Version To Be Found On The Net Guaranteed!!
            
Hard to play? Try these video lessons and learn fast. | Correct




comments powered by Disqus
↑ Back to top | Tablatures and chords are parodies/interpretations of the original songs. You may use it for private study, scholarship, research or language learning purposes only