» » »

Pearl Jam, It's Ok Tabs (ver.2)

Artists:  A B C D E F G H I J K L M N O P Q R S T U V W X Y Z # 

It's Ok Tabs (ver.2)

Pearl Jam Tabs
 Rating:
4/5 (4 votes)
It's Ok lessons Tabs too difficult? Try these video lessons and learn fast
                

-|------------------------------------------------------------------------------|
-|------------------------------------------------------------------------------|
-|-9-9-9-9-9-9-9-9------------------6-6-6-6-6-6-6-6-----------------------------|
-|-9-9-9-9-9-9-9-9-9-9-9-9-9-9-9-9--6-6-6-6-6-6-6-6--7-7-7-7-7-7-7-7------------|
-|-7-7-7-7-7-7-7-7-9-9-9-9-9-9-9-9--4-4-4-4-4-4-4-4--7-7-7-7-7-7-7-7------------|
-|-----------------7-7-7-7-7-7-7-7-------------------5-5-5-5-5-5-5-5------------|
    E5                       B5          Db5                A5    

-|------------------------------------------------------------------------------|
-|------------------------------------------------------------------------------|
-|------------------------------------------------------------------------------|
-|-9-9-9-9-9-9-9-9--9-9-9-9-9-9-9-9--11-11-11-11-11-11-11-11--7-7-7-7-7-7-7-7---|
-|-7-7-7-7-7-7-7-7--9-9-9-9-9-9-9-9--11-11-11-11-11-11-11-11--7-7-7-7-7-7-7-7---|
-|-0-0-0-0-0-0-0-0--7-7-7-7-7-7-7-7--9--9--9--9--9--9--9--9---5-5-5-5-5-5-5-5---|
   E5			B5		Db5 			A5

-|--0----------------||---------------------------------------------------------|
-|--0----------------||---------------------------------------------------------|
-|--1----------------||---------------------------------------------------------|
-|--2----------------||---------------------------------------------------------|
-|--2----------------||---------------------------------------------------------|
-|--0----------------||---------------------------------------------------------|
   End on E
            
Submit corrections

comments powered by Disqus
↑ Back to top | Pearl Jam Tabs for It's Ok. Lyrics for acoustic guitar and electric guitar. Tablatures and chords are parodies/interpretations of the original songs. You may use it for private study, scholarship, research or language learning purposes only