» » »

Interstellar Overdrive Tabs (ver.1)

Artists:  A B C D E F G H I J K L M N O P Q R S T U V W X Y Z # 

Interstellar Overdrive Tabs (ver.1)

Pearl Jam
Rating:
0/5 (0 votes)

Hard to play? Try these video lessons and learn fast.
                Played as an opener before Corduroy

-|---------------------------------------------|------------------------------
-|---------------------------------------------|------------------------------
-|---------------------------------------------|------------------------------
-|-9--9--9-9--8--9--8--7---7--7--7-7--6--7--6--|------------------------------
-|-9--9--9-9--8--9--8--7---7--7--7-7--6--7--6--|------------------------------
-|-7--7--7-7--6--7--6--5---5--5--5-5--4--5--4--|------------------------------
                                                                              

-|-----------------------------------------0---|------------------------------
-|-----------------------------------------0---|------------------------------
-|-----------------------------------------1---|------------------------------
-|-5-5-5-5-5-5-5-5-5-5-5-5-5-7-7-7---2-----2---|------------------------------
-|-5-5-5-5-5-5-5-5-5-5-5-5-5-7-7-7---2-----2---|------------------------------
-|-3-3-3-3-3-3-3-3-3-3-3-3-3-5-5-5---0-----0---|------------------------------
                                              Repeat as necessary
            
Hard to play? Try these video lessons and learn fast. | Correct




comments powered by Disqus
↑ Back to top | Tablatures and chords are parodies/interpretations of the original songs. You may use it for private study, scholarship, research or language learning purposes only