» » »

Immortality Tabs (ver.1)

Artists:  A B C D E F G H I J K L M N O P Q R S T U V W X Y Z # 

Immortality Tabs (ver.1)

Pearl Jam
Rating:
0/5 (0 votes)

Hard to play? Try these video lessons and learn fast.
                Immortality (Pearl Jam)

Intro:

 Cadd9       E   Cadd9        E
-------0----------------0----------
---------3----------------3--------
-----0-----0----------0-----0------
---2----------------2--------------
-3----------------3----------------
-------------0----------------0----

repeat

Verses:

Em Dsus2
-0- -0-
-0- -3-
-0- -2-
-2- -0-
-2- ---
-0- ---

These chords repeat wile this riff is played:

 Em      Dsus2       Em            Dsus2
--------------------------------------------------
-----0-------3-3---3-----0h3p0---------3-3---3----
-------0---2-----2-------------0-----2-----2------
---------0-----------------------0-0--------------
---2-------------------2--------------------------
-0-------------------0----------------------------


Chorus:
 
Cadd9  Em  Cadd9 Em Cadd9  A
-0-    -0- -0-   -0- -0-  -0-
-3-    -0- -3-   -0- -3-  -2-
-0-    -0- -0-   -0- -0-  -2-
-2-    -2- -2-   -2- -2-  -2-
-3-    -2- -3-   -2- -3-  -0-
---    -0- ---   -0- ---  ---

Bridge Solo and Solo in E minor

Here's the solo for Immortality, it's right before the
bridge: )=bend, )(=bend and bring down, p=pulloff

1-        :      :        :      :                    :
2-        :Hand  :        :more  :                    :
3- )(     :muting: )(     :hand  :7 7 7 7  7 7  7 7  9:
4-7  7p5  :(can't:7  7p5  :muting:5 5 5 5  5 5  5 5  7:
5-       7: get  :       7:      :                    :
6-        : it)  :        :      :                    :

1-             : ):                                        :
2-8 8   8      :10:                                        :
3-        9   9:  :12 14 12                                :
4-             :  :         14 14 14 14 14   12(slide down):
5-             :  :                                        :
6-             :  :                                        :

1-                               :      :                :
2-                               :      :12 12   12 12 12:
3-                               :12  12:12 12   12 12 12:
4-14 14 14 14 14   12(slide down):  14  :                :
5-                               :      :                :
6-                               :      :                :

1-    12    )   12
2-  12  12 15      15 12    12    15 12     12
3-14                     14    14
4-                                       14     14
5-
6-

I think the last portion is accurate and the first likc, but the rest are
just approximations.


Solo chords:

Em Dsus2 : repeats until "more intense part" then...

Em Dsus2 Em Cadd9 : repeats a couple of times until end of solo then a 
                    long drawn out...

A..........
      "Immortality"

Then play the riff played during the verse by itself.

Repeat the chorus twice

and the outro is in A.
            
Hard to play? Try these video lessons and learn fast. | Correct




comments powered by Disqus
↑ Back to top | Tablatures and chords are parodies/interpretations of the original songs. You may use it for private study, scholarship, research or language learning purposes only