>
 >
I Got Id

I Got Id Bass Tabs

Pearl Jam - I Got Id chords, tabs, tablatures, lyrics

Guitar lessons | Add/correct | Request | Top 50 tabs Artists:  A B C D E F G H I J K L M N O P Q R S T U V W X Y Z 0-9

I Got Id Bass Tabs – Pearl Jam

CD, Sheet music, Poster

Do you like I Got Id? Share with your friends now
Bass TabsChordsTabsTabs v2Ukulele
PEARL JAM "I GOT ID" -BASS TAB
--------------------				

Easily the best pearl jam song.  Brendan o'brien plays the bass rather
than jeff but it is still brilliant

normal tunning
Verse
|----------------|----------------|----------------|----------------|
|----------------|----------------|----------------|----------------|
|--------------3/|5-------------3/|5-------3-33--3/|5-------------3/|
|----------------|----------------|----------------|----------------|

|----------------|
|----------------|
|5--3-3--33333333|
|----------------|

Bridge
|----------------|----------------|----------------|----------------|
|----------------|----------------|----------------|----------------|
|22-22-2---------|22-22-2---------|22-22-2---------|22-22-2---------|
|--------2-2-33-3|--------2-2-33-3|--------2-2-3-33|--------2-2-3-33|

Chorus
|----------------|----------------|----------------|----------------|
|----------------|----------------|----------------|----------------|
|5-55--55-5--3---|--------------2-|3-33------------|----------------|
|----5-----------|-5-55-5-3-555---|-----011-2-3----|-3-3-31-3-3-3-5-|

|----------------|----------------|----------------|----------------|
|----------------|----------------|----------------|----------------|
|5-55--55-5--3---|--------------2-|3-33-13--3-3----|----------------|
|----5-----------|-5~-55~7--555---|-------------4--|-3-3-13-3--33---|

Postchorus
|----------------|----------------|----------------|----------------|
|----------------|----------------|----------------|----------------|
|5-5-5-5-5-5-5-5-|5-5-5-5-5-5-----|5-5-5-5-5-5-5-5-|3-3-3-3-3-3-3-3-|
|----------------|------------5-5-|----------------|----------------|

|----------------|----------------|----------------|----------------|
|----------------|----------------|----------------|----------------|
|5-5-5-5-5-5-5-5-|5-5-5-5-5-5-5-5-|5-5-5-5-5-5-5\3-|3-3-3-3-3-3---3/|
|----------------|----------------|----------------|----------------|

verse
|----------------|-----9-7-5------|----------------|----------------|
|----------------|-----------9\7--|-------8\7------|5-4-------------|
|5---------------|----------------|---5h7----------|----7-5-33333333|
|----------------|----------------|----------------|----------------|

Bridge
|----------------|----------------|----------------|----------------|
|----------------|----------------|----------------|--------4-445-05|
|22-22-2---------|22445577--------|22-22-2---------|22445577--------|
|--------2-2-33-3|--------2-22-33-|--------2-2-3-33|----------------|

Chorus
|----------------|----------------|----------------|----------------|
|----------------|----------------|----------------|--------5-------|
|5-55--55-5--3---|--------------2-|3-3-----3-3--2--|----------------|
|----5-----------|-5-55-5-3-555---|-----01---------|-3-3-3-3--3-3-5-|


|----------------|----------------|----------------|----------------|
|----------------|----------------|----------------|----------------|
|5-55--55-5--3---|--------------2-|3-33-13--3-3----|----------------|
|----5-----------|-5~-55~7--555---|-------------4--|-3-3-13-3--33---|

|----------------|----------------|----------------|----------------|
|----23-5/7~-----|----------------|----------------|----------------|
|5-5-------------|--------------2-|3--------3-2----|----------------|
|----------------|-5-3-55--5-5----|--01-1-2-----4--|-3-3-13-3--33---|

|----------------|--------------3-|-5-5------------|----------------|
|------9\77~-----|7-7-7-7---77----|----------------|----------------|
|5-8-9-----------|----------------|----------3-2---|----------------|
|----------------|----------------|----01-1-2------|-3-3-13-3--33---|

Postchorus
|----------------|----------------|----------------|----------------|
|----------------|-----------*-*-*|---------*-*-*-*|-*---------*----|
|5-5-5-5-5-5-----|5-5-5-5-5/151515|5-5-5-5/12121212|10-9----8-10----|
|------------3h5-|----------------|----------------|----8\7---------|

|----------------|----------------|----------------|----------------|
|-*--*--*--*--*--|-*--*--*--*--*-*|-*-*-*-*--*--*--|-*--*--*--*--*-*|
|12-12-10-12-12--|15-15-15-13-1515|17151715-17-15--|13-15-13-15-1315|
|----------------|----------------|----------------|----------------|

|----------------|----------------|----------------|----------------|
|-*--*----*--*---|-*--*----*---*--|-*----*----*--*-|-*--------------|
|12-12-0-12-10-0-|12-12-0-12-010-0|12-0-12-0-12-10/|12--------------|
|----------------|----------------|----------------|----------------|

  *  *
|17\15--*--*-----|----------------|----------------|
|------15/16-----|-*--*--*----*---|-*--------------|
|----------------|10h12-13---12---|10-9-8-7--------|
|----------------|----------------|----------8-----|

h = hammer on
~ = vibrato                                   *
* = fret number 2 digits i.e  12 is 1 then 2, 12 is twelve


I will reply 
to all emails

Feel free to distribute this just give me credit





Comments


Popular Pearl Jam tabs & chords
I'm Open 1 Bass Tabs
Mfc Bass Tabs
Red Mosquito Bass Tabs
I Am Mine 2 Chords
Nothing As It Seems Chords
Sleeping By Myself 1 Chords
Corduroy 4 Tabs
Last Kiss 1 Tabs
Smile Tabs
Smile 1 Tabs


Song lyrics



↑ Back to top | Tablatures and chords are parodies/interpretations of the original songs. You may use it for private study, scholarship, research or language learning purposes only
© 2014 AZChords.com Contact us | Privacy policy | DMCA | Add/correct tabs | Request tabs | Top 50 tabs