» » »

Pearl Jam, I Got Id Tabs (ver.2)

Artists:  A B C D E F G H I J K L M N O P Q R S T U V W X Y Z # 

I Got Id Tabs (ver.2)

Pearl Jam Tabs
 Rating:
4/5 (4 votes)
I Got Id lessons Tabs too difficult? Try these video lessons and learn fast
                I learned this a long time ago and it is 100% correct.  It is on their
Merkinball single or you can get it on Neil Youngs Mirrorball.

e-----0---------------10---------0----------------10----------0----------8-----
B----10---------------11--------10----------------11---------10----------8-----
G----11---------------10--------11----------------10---------11----------9-----
D-----0---------------0----------0-----------------0----------0----------0-----
A------------------------------------------------------------------------------
E------------------------------------------------------------------------------

repeat this riff for the verses but strum in between each chord change a few
times.

The Bridge or Pre-Chorus goes like this:

  "Once, I could feel loved . . . . . . . "

e--2---2-2---2-2-2----2--2-x----3----3---3---------------------------------
B--3---3-3---3-3-3----2--2-x----3----3---3---------------------------------
G--4---4-4---4-4-4----3--3-x----4----4---4---------------------------------
D--4---4-4---4-4-4----4--4-x----5----5---5---------------------------------
A--2---2-2---2-2-2----4--4-x----5----5---5---------------------------------
E--x---x-x---x-x-x----2--2-x----3----3---3---------------------------------

you can add a few strums too each chord. repeat it four times

Then the Chorus goes:

  "I       walked in line   ,  will you help me in real life . . . " 

e--5-5-5-5-5-5-5-5---5------------------8---------------3----
B--7-7-7-7-7-7-7-7---5------------------8---------------3----
G--7-7-7-7-7-7-7-7---5------------------9---------------4----
D--7-7-7-7-7-7-7-7---7-----------------10---------------5----
A--5-5-5-5-5-5-5-5---7-----------------10---------------5----
E--x-x-x-x-x-x-x-x---5------------------8---------------3----
  
each chord recieves eight even strums.
 
THe solo:

just mess around with these notes:

e-10-----12--13------
B-10-11--12--13------
G-10-11--12--13------
D-10-----12----------
A-10-----12----------

a COMMON RIFF in this solo is:

e----------------------------------------------------------------
B-11--10--------------11--10-------------11--10------------------
G---------12--11--10----------12--11--10--------12--11--10-s-8---
D----------------------------------------------------------------
            
Submit corrections

comments powered by Disqus
↑ Back to top | Pearl Jam Tabs for I Got Id. Lyrics for acoustic guitar and electric guitar. Tablatures and chords are parodies/interpretations of the original songs. You may use it for private study, scholarship, research or language learning purposes only