>
 >
Got Some 1

Got Some 1 Guitar Tabs

Pearl Jam - Got Some 1 chords, tabs, tablatures, lyrics

Guitar lessons | Add/correct | Request | Top 50 tabs Artists:  A B C D E F G H I J K L M N O P Q R S T U V W X Y Z 0-9

Got Some 1 Guitar Tabs – Pearl Jam

CD, Sheet music, Poster

Do you like Got Some 1? Share with your friends now
ChordsTabsTabs v2Ukulele
-------------------------------------------------------------------------------
                             GOT SOME - Pearl Jam
-------------------------------------------------------------------------------

Finally new PJ song "Got Some" from the upcoming album Backspacer! This was


O'Brien so it may be different from the version that appears on the album

when it comes out. Enjoy!


Tuning: Standard


Guitar 1(lead)- Mike- the solo at the end may still be a little inaccurate.

Guitar 2(rhythm)- Stone- can't hear him much, it looks like he plays some

pretty complex riffs at some parts, most of these will just be the basic

power chords that follow the bass.


Guitar 1- intro lead riff- the bends here are very small,  play 2 times
e|---------------------------------------------------------------------------|
B|---------------------------------------------------------------------------|
G|-14-12-14b14~~-12-14~~~~-14-12-14b14~~-12----------------------------------|
D|------------------------------------------12~~~~---------------------------|
A|---------------------------------------------------------------------------|
E|---------------------------------------------------------------------------|

Guitar 2- power chords under the intro riff
e|---------------------------------------------------------------------------|
B|---------------------------------------------------------------------------|
G|----------------7777777777777777-------------------------------------------|
D|77777777333333337777777777777777-------------------------------------------|
A|77777777333333335555555555555555-------------------------------------------|
E|5555555511111111-----------------------------------------------------------|

Guitar 2- Verse 1- It sounds like Stone is playing a chord with a reggae

strumming style. I think it is a short-form A chord. Otherwise the verse is

the same as the intro except the chords are held out until the last two times

before the chorus, then strum the chords. play 6 times
e|---------------------------------------------------------------------------|
B|---------------------------------------------------------------------------|
G|----------------10---------------------------------------------------------|
D|7-------10------10------12-------------------------------------------------|
A|7-------10------8-------12-------------------------------------------------|
E|5-------8---------------10-------------------------------------------------|

Guitar 1- Verse 1- during the verse Mike plays all kinds of little licks but

these seem to be the basic theme.
e|---------------------------------------------------------------------------|
B|-------------------8-8-----------------------------------------------------|
G|---7-7----------xxx-7-7----------------------------------------------------|
D|xxx-7-7--------------------------------------------------------------------|
A|---------------------------------------------------------------------------|
E|---------------------------------------------------------------------------|

Guitar 1- Chorus, 1 time
e|---------------------------------------------------------------------------|
B|---------------------------------------------------------------------------|
G|777777777777/6/5/33333333333333333-----------------------------------------|
D|777777777777/6/5/333333333333333335555555/1010101010101010-----------------|
A|555555555555/4/3/111111111111111115555555/1010101010101010-----------------|
E|----------------------------------3333333/8-8-8-8-8-8-8-8------------------|

Guitar 2- Chorus- Stone plays this over the chords during the chorus.
e|---------------------------------------------------------------------------|
B|10--10------------6---6-----------3---3---8---8-----6~~~-------------------|
G|---7---7------------3---3-----------0---0---5---5--------------------------|
D|---------------------------------------------------------------------------|
A|---------------------------------------------------------------------------|
E|---------------------------------------------------------------------------|

Guitars 1 and 2- Verse 2 (same as verse 1)

Guitars 1 and 2- Chorus, (same as before but play 3 times)

Guitar 1- Bridge- Mike plays a few little licks with a delay effect on.
Heres what I got...
e|-----------------------------------------------------------------------------|
B|------------8-8-------------------------8-8-----8-8-8-8/12-12-12-12/14-14----|
G|-7-7-------x-7-7---------------------x-7-7-----[Tremolo picked---------------|
D|x-7-7-----------------x-x-7-7-7----------------------------------------------|
A|-----------------------------------------------------------------------------|
E|-----------------------------------------------------------------------------|

e|------15b16b17-17------------------------------------------------------------|
B|14-14------------------------------------------------------------------------|
G|Tremolo picked---]-----------------------------------------------------------|
D|-----------------------------------------------------------------------------|
A|-----------------------------------------------------------------------------|
E|-----------------------------------------------------------------------------|

Guitar 2- Bridge-
e|5-------8--------3-------5-------8-------3---------------------------------|
B|6-------8--------3-------6-------8-------3---------------------------------|
G|7-------9--------4-------7-------9-------4---------------------------------|
D|7-------10-------5-------7-------10------5---------------------------------|
A|5-------10-------5-------5-------10------5---------------------------------|
E|--------8--------3---------------8-------3---------------------------------|

Guitar 1- Verse 3- (Mike plays the intro riff during this, just listen for

when it comes in)

Guitar 2- Verse 3- Same as the other verses, play twice

Guitar 1- Chorus- play 2 times
e|---------------------------------------------------------------------------|
B|---------------------------------------------------------------------------|
G|777777777777/6/5/33333333333333333-----------------------------------------|
D|777777777777/6/5/333333333333333335555555/1010101010101010-----------------|
A|555555555555/4/3/111111111111111115555555/1010101010101010-----------------|
E|----------------------------------3333333/8-8-8-8-8-8-8-8------------------|

Guitar 2- Chorus and Solo- Same as before except on the last time the chorus

is repeated, switch to the chorus chords while guitar 1 plays the solo

Guitar 1- Solo-
e|15b17~~~~--15b17b15-13-12h13~~-13b14b13-12-----------13-15--|
B|-------------------------------------------15b16b15~~-------|
G|------------------------------------------------------------|
D|------------------------------------------------------------|
A|------------------------------------------------------------|
E|------------------------------------------------------------|

e|15b17~~~~--15b17b15-13-12h13~~-13b14b13-12---------------13-15-15b17~~~~-|
B|-------------------------------------------15b16b15~~-15-----------------|
G|-------------------------------------------------------------------------|
D|-------------------------------------------------------------------------|
A|-------------------------------------------------------------------------|
E|-------------------------------------------------------------------------|

| b  bend note
| /  slide up
| \  slide down
| h  hammer-on
| p  pull-off
| ~  vibrato
| +  harmonic
| x  Mute note
===============================================================================





Comments


Popular Pearl Jam tabs & chords
Around The Bend Bass Tabs
Corduroy Bass Tabs
Hey Foxymophandlemama Thats Me Bass Tabs
Just Breathe 2 Chords
Last Kiss Chords
Soon Forget 2 Chords
Alive 3 Tabs
I Am Mine 2 Tabs
Come Back Ukulele
Rats Ukulele


Song lyrics



↑ Back to top | Tablatures and chords are parodies/interpretations of the original songs. You may use it for private study, scholarship, research or language learning purposes only
© 2014 AZChords.com Contact us | Privacy policy | DMCA | Add/correct tabs | Request tabs | Top 50 tabs