» » »

Pearl Jam, Given To Fly Tabs (ver.1)

Artists:  A B C D E F G H I J K L M N O P Q R S T U V W X Y Z # 

Given To Fly Tabs (ver.1)

Pearl Jam Tabs
Rating:
0/5 (0 votes)
Given To Fly lessons Tabs too difficult? Try these video lessons and learn fast
                Given to Fly (Pearl Jam)




Strofa 1  riff1

							           RIFF1
E----------------------7-----7-----------------------------------------------        He could've tuned in,tuned in but he tuned out
B-------------------8----------8---------------------------------------------         
G-----------0----7----------------7----0----9---11---12----9---7--------        A bad time nothing could save him RIFF2
D----------------------------------------------------------------------------         
A----------------------------------------------------------------------------          Alone in a corridor waiting locked out 
E----------------------------------------------------------------------------
							            He outta up there run for hundred of miles

										
E----------5---0-0--2--------------------------------------------------------
B------------------------------------------------------------------------------        Made it to the ocean,had a smoke in a tree
G------------------------------------------------------------------------------
D-----------------------------------------------------------------------------         The wind  rose up,set him down on his knee 
A-----------------------------------------------------------------------------
E------------------------------------------------------------------------------        

							             ACCORDI
							             A wave came crashing like a fist to the jaw
Strofa 2     Accordi					             
							             Delivered him wings ''Hey look @ me now''

E------------3---------------------2-----------0------------------------------        Arms wide open with the sea as his floor
B------------3----------------------3-----------3----------------------------
G------------0---------------------2------------2----------------------------         Oh,oh,ohoh
D------------0---------------------0-------------0---------------------------
A------------2----------------------------------------------------------------		
E------------3-----------------------------------------------------------------        He's Flying...whole  x2



							            Floated back down cause he wanted to share
Rit ''He's Flying...Whole....''
							            The key to the locks on the chains he saw 

E---------3----------g-----------3--------2--------0-------------3----------        Everywhere
B---------5----------r------------5-------4--------2-------------3----------
G---------5---------a------------5-------4--------2--------------0---------         First he was stripped then he was stabbed
D---------5----------t------------5-------4--------2-------------0----------
A---------3----------t------------3-------2--------0-------------2----------        By faceless man well... f**king he still stands
E----------3---------a------------3-------2----------------------3----------
		 t
                             o
							            And he still gives his love,he just gives it away

							            The love he receives is the love that is save

							            And sometimes is seen a strange spot in the sky

							            A human being that was Given to fly
            

comments powered by Disqus
↑ Back to top | Pearl Jam Tabs for Given To Fly. Lyrics for acoustic guitar and electric guitar. Tablatures and chords are parodies/interpretations of the original songs. You may use it for private study, scholarship, research or language learning purposes only