>
 >
Garden 2

Garden 2 Bass Tabs

Pearl Jam - Garden 2 chords, tabs, tablatures, lyrics

Guitar lessons | Add/correct | Request | Top 50 tabs Artists:  A B C D E F G H I J K L M N O P Q R S T U V W X Y Z 0-9

Garden 2 Bass Tabs – Pearl Jam

CD, Sheet music, Poster

Do you like Garden 2? Share with your friends now
Bass TabsBass Tabs v2TabsTabs v2Tabs v3
Pearl Jam
Garden
bass tab

  0.00         intro             t:90          4:4   5:4
|----------------|----------------|----------------|----------------------|
|----------------|----------------|----------------|----------------------|
|----------------|----------------|----------------|----------------------|
|----------------|----------------|----------------|----------------------|

  0.13
|----------------|----------------|---------(7)----|-----(7)--------|
|-----(7)--------|-----(7)--(7)---|-----(7)--------|----------------|
|0--------(5)----|0----------(5)--|o---------------|0---------------|
|----------------|----------------|------------\\\-|----------------|

  0.25         verse 1
|--------(7)-----|----------------|----------------|----------------|
|-----(7)-(7)=---(7)---(7)--------|---------(7)----(7)---(7)--------|
|0---------------|----------------|-^^^--0----(7)--|-------(5)------|
|----------------|----------------|5---------------|----------------|

|----------------|----------------|----------------|----------------|
|---------(7)----|-----(7)--------|-----(7)-(5)----|-----------(7)--|
|0----(5)--------(5)-----(5)------|0---------------(5)----(5)----(5)|
|----------------|----------------|----------------|----------------|

|----------------|----------------|------------^---|----------------|
|-----(7)-(7)----|----------------|-----(7)-(5)-7\\|------------^---|
|0------(5)------|0-----0---------|0------(5)------|o-----o-----12\\|
|----------------|----------------|----------------|----------------|

  1.02         chorus 1
|----------------|----------------|-------------^--|----------------|
|7---7=7---7---7-|5-----------5---|7---7=7-----79\\|5-----------5---|
|---o------------|------5---5--5//|---o------------|------5---5--5//|
|----------------|----------------|----------------|----------------|

|----------------|----------------|-^^^---------^--|------------`---|
|7---7-7---7-77--|5---------------|9-----7-----79\\|5---------------|
|---o------------|------5-----5-//|----------------|------5---------|
|----------------|----------------|----------------|----------------|

  1.27         theme 1
|----------------|-^--------------|----------------|-^--------------|
|7--5--4--------/|57-\\-----------|7--5--4--------/|57--------------|
|----------5---56|------0---------|----------5---56|--0-------------|
|----------------|----------------|----------------|----------------|

  1.39         verse 2
|----------------|-^--------------|----------------|-^--------------|
|7--5--4---------|57-\\-----------|7--5--4---------|57------7-77777-|
|----------5---5//------0---------|----------5---5//----o-o---------|
|----------------|----------------|----------------|----------------|

  1.51         chorus 2
|----------------|----------------|-------------^--|----------------|
|------7------7--|5-----------5---|----7-7-----79\\|5--555------5---|
|0--o0-----.-o---|------5---5--5--|0--o------------|------5---5--5\\|
|----------------|----------------|----------------|----------------|

|----------------|----------------|-^^^---------^--|----------------|
|----7=7-----77--|5---------------|9-----7---7-79\\|5---------------|
|0--o------------|------5-----5-//|----------------|------5-----5//-|
|----------------|----------------|----------------|----------------|

  2.15         theme 2
|----------------|----------------|----------------|----------------|
|----------0--.o-|-^--------0--.o-|-^--------0---o-|-^--------0--o0-|
|T--X-\9\\-------|XT--X--9\-------|XT--X--9\-------|XT--X--9\-------|
|----------------|----------------|----------------|----------------|

  2.27         bridge 1
|----------------|----------------|
|-^--------0--.o-|-^--------0--.o-|
|XT--X--9\-------|XT-.X--9\-------|
|----------------|----------------|
                                           6:8   9:8
                 |----------------|------------|------------------|
                 |-^--------0---o-|-^--------0--------------------|
                 |XT--X--9\-------|XT-.X--9\---|------------------|
                 |----------------|------------|------------------|

  2.41           |-----'`-|`---`-'---.--.'-|.---.'`------.'-|`--..-'---.--.'-|
  solo           |--57-\\-|------7---------|----------------|----------------|
            4:8  |57------|0---o-----o--o0-|0---ooo-o-o-----|0--o0-0----------
                 |--------|----------------|----------------|----------------|

    |`---..`---|----`-----|----`-----.-'.--|.--.'-.---.-'---|
    |----------|--------57|----7-----------|----7-7---7-7-7-|
    ---------=-|0-----57--|0---------------|0--o-o----------|
    |----------|----------|----------------|----------------|
              5:8
                          |----------------|----------------|
                          |7---7-7---777---|7---=-7---=-----|
                          |---o------------|----------------|
                          |.--.'-.---..'.--|.--.'-.--..-'---|
                6:4
 |`-----------`-------`---|.--.'-.--..-'---|.--.'-.--...'.--|.--.'-.--..-'---|
 |------------------------|----------------|----------------|----------------|
 |--------XT-\\-7--------------------------|----------------|----------------|
 |------XT----------------|----------------|----------------|----------------|

                          |.--.'-.----.'.--|.--.'-.---.-'-`-|
                          |7---------------|7---------------|
                          |----------------|----------------|
                          |----------------|----------------|

 |`---'-''''--'-`---------|----------------|----------------|------------^---|
 |------------------------|----------------|----------------|---------765o567|
 |o-------XT-\\-7--------\\\---------------|----------------|----------------|
 |------XT----------------|----------------|----------------|----------------|

  3.37         chorus 3
|----------------|----------------|-------------^--|----------------|
|----7---7-7-7-7-|5---------------|------7-----79\\|5--.55------5---|
|0-0----------o--|------5------5\\|0--oo-----------|------5----5-5\\|
|----------------|------------5---|----------------|----------------|

|----------------|----------------|-^^^---------^--|----------------|
|----7-7-----77--|5---------------|9-----7-----79\\|5---------------|
|0--o------------|------5-----5//-|----------------|------5------5\\|
|----------------|----------------|----------------|------------5---|

|----------------|----------------|-------------^--|-------------^/-|
|----7-7---7777--|5---------------|------7-----79\\|5---55------o45-|
|0-oo------------|------5------5\\|0--oo-----------|------5---------|
|----------------|------------5---|----------------|----------------|

  4.12         bridge 2
|----------------|----------------|-^--------------|-^--------------|
|7--5--4---0---o-|57-\5-\4\-0-o-o-|57--5--4--0-o-o-|57--5--4--0-o0--|
|----------------|----------------|----------------|----------------|
|----------------|----------------|----------------|----------------|

|-^--------------|-^--------------|-^--------------|-^--------------|
|57--5--4--0-o-o-|57--5--4--0-o-o-|57--5--4--0-o-o-|57--5--4-.0-0o0-|
|----------------|----------------|----------------|----------------|
|----------------|----------------|----------------|----------------|

|-^--------------|-^--------------|-^--------------|-^--------------
|57--5--4--0-o-oo|57--5--4--0-o-o-|57--5--4--0-ooo-|57--5--4-.0-0--
|----------------|----------------|----------------|--------------
|----------------|----------------|----------------|-------------



| /  slide up
| \  slide down
| // reposition
| (7) harmonics, or quieter, or other instrument
| .   incidental note (last note or open string)
| o   open incidental note (quieter open string)
| ^   bend, pre-struck note (hammer-on pull-off)
|   triplet
| ^^  wiggle
| =   rest

| X   10
| E   11
| T   12
| H   13
| F   14

other punctuation
= percussion cues

horizonto time standardized
display in fixed-width font
one space ("-") = 1/16 note
n fits neatly on one screen
print out in landscape mode

spaceyhippie
dudeman.net/jam





Comments


Popular Pearl Jam tabs & chords
Black Red Yellow Bass Tabs
Insignificance Bass Tabs
Unemployable Bass Tabs
Cropduster Chords
Man Of The Hour Chords
Hard To Imagine 2 Tabs
Last Exit Tabs
Let The Records Play Tabs
Lucys Shoes Tabs
Out Of My Mind Tabs


Song lyrics



↑ Back to top | Tablatures and chords are parodies/interpretations of the original songs. You may use it for private study, scholarship, research or language learning purposes only
© 2014 AZChords.com Contact us | Privacy policy | DMCA | Add/correct tabs | Request tabs | Top 50 tabs