» » »

Pearl Jam, Force Of Nature Tabs (ver.1)

Artists:  A B C D E F G H I J K L M N O P Q R S T U V W X Y Z # 

Force Of Nature Tabs (ver.1)

Pearl Jam Tabs
 Rating:
4/5 (4 votes)
Force Of Nature lessons Tabs too difficult? Try these video lessons and learn fast
                Force of Nature


e|-------|
B|-------|
G|--4-4--|
D|--4-4--|
A|--2-2--|
E|-------|

e|----------------|
B|----------------|
G|--7-7-7---4-4---|
D|--7-7-7---4-4---|
A|--5-5-5---2-2---|
E|----------------| X5

e|-----------------------------|
B|-----------------------------|
G|--7-7------------------------|
D|--7-7-7-7-7-7-7--5-5-5-5-5---|
A|--5-5-7-7-7-7-7--5-5-5-5-5---|
E|------5-5-5-5-5--3-3-3-3-3---|

e|-------|
B|-------|
G|--4-4--|
D|--4-4--|
A|--2-2--|
E|-------|

B|----------------|
G|--7-7-7---4-4---|
D|--7-7-7---4-4---|
A|--5-5-5---2-2---|
E|----------------| X5

e|-----------------------------|
B|-----------------------------|
G|--7-7------------------------|
D|--7-7-7-7-7-7-7--5-5-5-5-5---|
A|--5-5-7-7-7-7-7--5-5-5-5-5---|
E|------5-5-5-5-5--3-3-3-3-3---|

e|-------|
B|-------|
G|--4-4--|
D|--4-4--|
A|--2-2--|
E|-------|

B|----------------|
G|--7-7-7---4-4---|
D|--7-7-7---4-4---|
A|--5-5-5---2-2---|
E|----------------| X5

e|-----------------------------|
B|-----------------------------|
G|--7-7------------------------|
D|--7-7-7-7-7-7-7--5-5-5-5-5---|
A|--5-5-7-7-7-7-7--5-5-5-5-5---|
E|------5-5-5-5-5--3-3-3-3-3---|

e|---------------------------------------------------------------------------|
B|---------------------------------------------------------------------------|
G|--7-7-7-7-7-----------4-4-4-4-4-----------7--------4-4-4-4-4-6-6-6-6-6-7-7-|
D|--7-7-7-7-7-6-6-6-6-6-4-4-4-4-4-5-5-5-5-5-7----6---4-4-4-4-4-6-6-6-6-6-7-7-|
A|--5-5-5-5-5-4-4-4-4-4-2-2-2-2-2-5-5-5-5-5-5----4---2-2-2-2-2-4-4-4-4-4-5-5-|
E|--------------------------------3-3-3-3-3----------------------------------|

e|-----------------|
B|-----------------|
G|-7-7-7-9-9-9-9-9-|
D|-7-7-7-9-9-9-9-9-|
A|-5-5-5-7-7-7-7-7-|
E|-----------------|

e|-------|
B|-------|
G|--4-4--|
D|--4-4--|
A|--2-2--|
E|-------|

B|----------------|
G|--7-7-7---4-4---|
D|--7-7-7---4-4---|
A|--5-5-5---2-2---|
E|----------------| X9

e|-----------------------------|
B|-----------------------------|
G|--7-7------------------------|
D|--7-7-7-7-7-7-7--5-5-5-5-5---|
A|--5-5-7-7-7-7-7--5-5-5-5-5---|
E|------5-5-5-5-5--3-3-3-3-3---|

e|---------------------------------------------------------------------------|
B|---------------------------------------------------------------------------|
G|--7-7-7-7-7-----------4-4-4-4-4-----------7--------4-4-4-4-4-6-6-6-6-6-7-7-|
D|--7-7-7-7-7-6-6-6-6-6-4-4-4-4-4-5-5-5-5-5-7----6---4-4-4-4-4-6-6-6-6-6-7-7-|
A|--5-5-5-5-5-4-4-4-4-4-2-2-2-2-2-5-5-5-5-5-5----4---2-2-2-2-2-4-4-4-4-4-5-5-|
E|--------------------------------3-3-3-3-3----------------------------------|

e|-----------------|
B|-----------------|
G|-7-7-7-9-9-9-9-9-|
D|-7-7-7-9-9-9-9-9-|
A|-5-5-5-7-7-7-7-7-|
E|-----------------|

e|---------------------------------------------------------------------------|
B|---------------------------------------------------------------------------|
G|--7-7-7-7-7-----------4-4-4-4-4-----------7--------4-4-4-4-4-6-6-6-6-6-7-7-|
D|--7-7-7-7-7-6-6-6-6-6-4-4-4-4-4-5-5-5-5-5-7----6---4-4-4-4-4-6-6-6-6-6-7-7-|
A|--5-5-5-5-5-4-4-4-4-4-2-2-2-2-2-5-5-5-5-5-5----4---2-2-2-2-2-4-4-4-4-4-5-5-|
E|--------------------------------3-3-3-3-3----------------------------------|

e|-----------------|
B|-----------------|
G|-7-7-7-9-9-9-9-9-|
D|-7-7-7-9-9-9-9-9-|
A|-5-5-5-7-7-7-7-7-|
E|-----------------|

e|-------------------------------------------|
B|-------------------------------------------|
G|--4---------6---------7---------9----------|
D|--4---------6---------7---------9----------|
A|--2---------4---------5---------7----------|
E|-------------------------------------------|

e|----------|
B|----------|
G|--6----4--|
D|--6----4--|
A|--4----2--|
E|----------|X3

e|---------------------------------|
B|---------------------------------|
G|--6---------7---------9----------|
D|--6---------7---------9----------|
A|--4---------5---------7----------|
E|---------------------------------|

e|-------------------------------------------|
B|-------------------------------------------|
G|--4---------6---------7---------9----------|
D|--4---------6---------7---------9----------|
A|--2---------4---------5---------7----------|
E|-------------------------------------------|

e|------|
B|------|
G|--4---|
D|--4---|
A|--2---|
E|------|

e|-------|
B|-------|
G|--4-4--|
D|--4-4--|
A|--2-2--|
E|-------|

B|----------------|
G|--7-7-7---4-4---|
D|--7-7-7---4-4---|
A|--5-5-5---2-2---|
E|----------------| X5

e|-----------------------------|
B|-----------------------------|
G|--7-7------------------------|
D|--7-7-7-7-7-7-7--5-5-5-5-5---|
A|--5-5-7-7-7-7-7--5-5-5-5-5---|
E|------5-5-5-5-5--3-3-3-3-3---|

e|---------------------------------------------------------------------------|
B|---------------------------------------------------------------------------|
G|--7-7-7-7-7-----------4-4-4-4-4-----------7--------4-4-4-4-4-6-6-6-6-6-7-7-|
D|--7-7-7-7-7-6-6-6-6-6-4-4-4-4-4-5-5-5-5-5-7----6---4-4-4-4-4-6-6-6-6-6-7-7-|
A|--5-5-5-5-5-4-4-4-4-4-2-2-2-2-2-5-5-5-5-5-5----4---2-2-2-2-2-4-4-4-4-4-5-5-|
E|--------------------------------3-3-3-3-3----------------------------------|

e|-----------------|
B|-----------------|
G|-7-7-7-9-9-9-9-9-|
D|-7-7-7-9-9-9-9-9-|
A|-5-5-5-7-7-7-7-7-|
E|-----------------|

e|---------------------------------------------------------------------------|
B|---------------------------------------------------------------------------|
G|--7-7-7-7-7-----------4-4-4-4-4-----------7--------4-4-4-4-4-6-6-6-6-6-7-7-|
D|--7-7-7-7-7-6-6-6-6-6-4-4-4-4-4-5-5-5-5-5-7----6---4-4-4-4-4-6-6-6-6-6-7-7-|
A|--5-5-5-5-5-4-4-4-4-4-2-2-2-2-2-5-5-5-5-5-5----4---2-2-2-2-2-4-4-4-4-4-5-5-|
E|--------------------------------3-3-3-3-3----------------------------------|

e|-----------------|
B|-----------------|
G|-7-7-7-9-9-9-9-9-|
D|-7-7-7-9-9-9-9-9-|
A|-5-5-5-7-7-7-7-7-|
E|-----------------|
            
Submit corrections

comments powered by Disqus
↑ Back to top | Pearl Jam Tabs for Force Of Nature. Lyrics for acoustic guitar and electric guitar. Tablatures and chords are parodies/interpretations of the original songs. You may use it for private study, scholarship, research or language learning purposes only