» » »

Pearl Jam, Even Flow Tabs (ver.3)

Artists:  A B C D E F G H I J K L M N O P Q R S T U V W X Y Z # 

Even Flow Tabs (ver.3)

Pearl Jam Tabs
Rating:
0/5 (0 votes)
Even Flow lessons Tabs too difficult? Try these video lessons and learn fast
                Tuning: 1/2 step down

RATE PLEASE...

PEARL JAM IS THE BEST 

This is a reponse to all sucky pearl jam tabs. 
PLEASE POEPLE DO A GOOD JOB OK. Try your best.
Write any comments or corrections.
The solo is coming on the way.

-=-INTRO/VERSE-=-


Guitar 1 (Distortion)
/---------/--------------------------------------/
/---------/--------------------------------------/
/---------/--------------------------------------/
/---------/--------------------------------------/  x 3
/---------/-----------3-----5~~~-----------------/
/---12/3--/----3/5-x-----x-----------6-5-3-0-----/




Guitar 2 (distortion)
/-----------------------------------------------/
/------------------7-x--9~---7-5----------------/
/-------------9-x--7-x--9~-------7-0------------/  x 3
/-------------9-x-------------------------------/
/-----------------------------------------------/
/-----------------------------------------------/
                               


at last verse part let ring last notes 

-=-CUT1/MINISOLO-=-

Guitar 1 (Distortion)
/-----------------------------------------------/
/-----------------------------------------------/
/---9/7-----------------------------------------/
/--------9/7--------7/5-------------------------/
/-------------10/7-------7~---------------------/
/-----------------------------------------------/


-=-CHORUS-=-

Guitar 1 (distortion)
/--------------------------------------------------/
/-----9-9--5~------9-9--7~-------------------------/
/-----9-9--5~------9-9--7~-------------------------/
/-----9-9--5~------9-9--7~-------------------------/
/-----7-7--3~------7-7--5~-------------------------/
/--------------------------------------------------/


Guitar 2 (distortion)
/--------------------------------------------------/
/-----9-9--5~--5^5^5^---9-9--7~--7^7^7^------------/
/-----9-9---------------9-9------------------------/     ^ = bend up w/bar
/-----9-9---------------9-9------------------------/
/-----7-7---------------7-7------------------------/
/--------------------------------------------------/

-=-CUT-=-

Guitar 1 (Distortion)
/--------------------------------------------------/
/----------------------9~--------------------------/
/----------------------9~--------------------------/
/--------------------------------------------------/
/--------5-5-5-5-6-7-------------------------------/
/--------------------------------------------------/

[---palm mute this--]

-=-GUITAR SOLO-=- ... Coming Soon...

-=-AFTER GUITAR SOLO CUT-=-

Guitar 1
/----------------------------------------------------/
/----------------------------------------------------/
/----------------------------------------------------/
/----------------------------------------------------/
/----------5-5-5-5-6--7~-----------------------------/
/----------------------------------------------------/

[---palm mute this--] growing with volume


Guitar 2
/-----------------------------------------------/
/-----------------------------------------------/
/-----------------------------------------------/
/----------------------------------------5~-----/
/-----------3-----5~~~----------3-----5---------/
/----3/5-x-----x---------3/5-x-----x------------/

growing with volume


Guitar 1 (last jam)
/-----------------------------------------------------/
/-----------------------------------------------------/
/-----------------------------------------------------/
/--------------------5/14-----------------------------/
/----------5-5-5-5-6----------------------------------/
/-----------------------------------------------------/

Guitar 2
/-----------------------------------------------/
/-----------------------------------------------/
/-----------------------------------------------/
/-----------------------------------------------/  (x) = harmonics
/-----------3-----5~~~----------3-----(5)-------/
/----3/5-x-----x---------3/5-x-----x------------/



STRUCTURE

*intro
*verse x 3
*cut/minisolo
*chorus
*verse x3
*cut/minisolo
*chorus
*after chorus part
*Guitar solo
*after guitar solo cut
*chorus 
*verse x 3
z8final jam

thanks...
            
Submit corrections

comments powered by Disqus
↑ Back to top | Pearl Jam Tabs for Even Flow. Lyrics for acoustic guitar and electric guitar. Tablatures and chords are parodies/interpretations of the original songs. You may use it for private study, scholarship, research or language learning purposes only