» » »

Pearl Jam, Do The Evolution Tabs (ver.1)

Artists:  A B C D E F G H I J K L M N O P Q R S T U V W X Y Z # 

Do The Evolution Tabs (ver.1)

Pearl Jam Tabs
 Rating:
4/5 (4 votes)
Do The Evolution lessons Tabs too difficult? Try these video lessons and learn fast
1
                TUNING: Standard

This pretty much had all the right tab in it.
I just cleaned it up and added the words.

Intro:
E--------------------------------|
B--------------------------------|
G-X-X----------0-3-----------0-3-|
D-X-X-0--3-0-3------0--3-0-3-----|
A--------------------------------|
E--------------------------------|

Verse 1:
E---------------------------|
B---------------------------|
G----------0-3----------0-3-|
D-0--3-0-3-0-1-0--3-0-3-0-1-|
A-0--3-0-3-----0--3-0-3-----|
E---------------------------|


Chorus 1:
E------------------------------|
B------------------------------|
G-3--3-3-3-3-3-3-2--2-2-1--1-1-|
D-3--3-3-3-3-3-3-2--2-2-1--1-1-|
A-3--3-3-3-3-3-3-2--2-2-1--1-1-|
E------------------------------|


Verse 2:
E---------------------------|
B---------------------------|
G----------0-3----------0-3-|
D-0--3-0-3-0-1-0--3-0-3-0-1-|
A-0--3-0-3-----0--3-0-3-----|
E---------------------------|


Chorus 2:
E---------------|
B---------------|
G-3-3-3-3-2-2-1-|
D-3-3-3-3-2-2-1-|
A-3-3-3-3-2-2-1-|
E---------------|


Verse 3:
E---------------------------|
B---------------------------|
G----------0-3----------0-3-|
D-0--3-0-3-0-1-0--3-0-3-0-1-|
A-0--3-0-3-----0--3-0-3-----|
E---------------------------|

Chorus 3:
E---------------|
B---------------|
G-3-3-3-3-2-2-1-|
D-3-3-3-3-2-2-1-|
A-3-3-3-3-2-2-1-|
E---------------|


Verse 4:
E---------------------------|
B---------------------------|
G----------0-3----------0-3-|
D-0--3-0-3-0-1-0--3-0-3-0-1-|
A-0--3-0-3-----0--3-0-3-----|
E---------------------------|

Bridge:
E----------------------------------------------1-(1)--------------|
B----------------------------------------------3--3-3-3-3-3-3-3-2-|
G----------------------------------------------2--2-2-2-2-2-2-2-2-|
D-3-00-0-0--3-00-0-0--2-0-------02-----3-02-0--0-(0)--------------|
A------------------------3--3-----31-01---------------------------|
E-----------------------------------------------------------------|

Chorus 4:
E---------------|
B---------------|
G-3-3-3-3-2-2-1-|
D-3-3-3-3-2-2-1-|
A-3-3-3-3-2-2-1-|
E---------------|


Verse 5:
E---------------------------|
B---------------------------|
G----------0-3----------0-3-|
D-0--3-0-3-0-1-0--3-0-3-0-1-|
A-0--3-0-3-----0--3-0-3-----|
E---------------------------|

Second Bridge:
E-----------------------------------|
B-7---7---4---3---3/5---5---4---5---|
G-7---5---4---3---3/5---5---4---5---|
D-7---5---4---3---3/7---5---4---5---|
A-5---3---2---1---1/5---3---2---3---|
E-----------------------------------|


Bridge:
E----------------------------------------------1-(1)--------------|
B----------------------------------------------3--3-3-3-3-3-3-3-2-|
G----------------------------------------------2--2-2-2-2-2-2-2-2-|
D-3-00-0-0--3-00-0-0--2-0-------02-----3-02-0--0-(0)--------------|
A------------------------3--3-----31-01---------------------------|
E-----------------------------------------------------------------|


Chorus 5:
E---------------|
B---------------|
G-3-3-3-3-2-2-1-|
D-3-3-3-3-2-2-1-|
A-3-3-3-3-2-2-1-|
E---------------|


I wouldn't know where to begin on the solo... sorry

Verse 6:
E---------------------------|
B---------------------------|
G----------0-3----------0-3-|
D-0--3-0-3-0-1-0--3-0-3-0-1-|
A-0--3-0-3-----0--3-0-3-----|
E---------------------------|

Chorus 6:
E---------------|
B---------------|
G-3-3-3-3-2-2-1-|
D-3-3-3-3-2-2-1-|
A-3-3-3-3-2-2-1-|
E---------------|


Verse 7:
E---------------------------|
B---------------------------|
G----------0-3----------0-3-|
D-0--3-0-3-0-1-0--3-0-3-0-1-|
A-0--3-0-3-----0--3-0-3-----|
E---------------------------|


Chorus 7:
E---------------|
B---------------|
G-3-3-3-3-2-2-1-|
D-3-3-3-3-2-2-1-|
A-3-3-3-3-2-2-1-|
E---------------|


Verse 8:
E---------------------------|
B---------------------------|
G----------0-3----------0-3-|
D-0--3-0-3-0-1-0--3-0-3-0-1-|
A-0--3-0-3-----0--3-0-3-----|
E---------------------------|

Chorus 8:
E---------------|
B---------------|
G-3-3-3-3-2-2-1-|
D-3-3-3-3-2-2-1-|
A-3-3-3-3-2-2-1-|
E---------------|


Verse 9 (guitar one):
E---------------------------|
B---------------------------|
G----------0-3----------0-3-|
D-0--3-0-3-0-1-0--3-0-3-0-1-|
A-0--3-0-3-----0--3-0-3-----|
E---------------------------|

Outro (guitar two):
E--------------------------|
B--------------------------|
G-7-7-77-7--7-7-77-7-------|
D-7-7-77-7--7-7-77-7-------|
A-5-5-55-5--5-5-55-5-------|
E--------------------------|
            
Submit corrections

comments powered by Disqus
↑ Back to top | Pearl Jam Tabs for Do The Evolution. Lyrics for acoustic guitar and electric guitar. 1 Tablatures and chords are parodies/interpretations of the original songs. You may use it for private study, scholarship, research or language learning purposes only